Artists by letter: A B C D E F G H I J K L M N O P Q R S T U V W X Y Z 0-9

 
One Of The Boys Tab
Intro & Verse


(some parts are not palm muted, u can hear it in the song, im to lazy to fix to put em 
here. lol)

"i saw a spider i didn't scream.."
|---------------------------------|------------------------------------|
|---------------------------------|------------------------------------|
|---------------------------------|------------------------------------|
|-3-3-3-3-3-3-3-3-3-3-3-3-3-3-3-3-|------------------------------------|
|-1-1-1-1-1-1-1-1-1-1-1-1-1-1-1-1-|-3-3-3-3-3-3-3-3-3-3-3-3-3-3-3-3----|
|---------------------------------|-1-1-1-1-1-1-1-1-1-1-1-1-1-1-1-1----|
  pm...............................................................

|---------------------------------|------------------------------------|
|---------------------------------|------------------------------------|
|---------------------------------|------------------------------------|
|-3-3-3-3-3-3-3-3-3-3-3-3-3-3-3-3-|------------------------------------|
|-1-1-1-1-1-1-1-1-1-1-1-1-1-1-1-1-|-3-3-------------------3-3-3-3------|
|---------------------------------|-1-1-------------------1-1-1-1------|
  pm.............................                         . . .

"i chose guitar over ballet.."
|-------------------------------------|------------------------------|
|-------------------------------------|------------------------------|
|--2-3-2-3-2~-------------2-3-2-3-2~--|------------------------------|
|--------------2-3-2-3-2~-------------|------------------------------|
|-------------------------------------|-3-3----3-3----3-3---3-3-3-3--|
|-------------------------------------|-1-1----1-1----1-1---1-1-1-1--|


Bridge

"the way u look at me.."
|---------------------------|
|---------------------------|
|---------------------------|
|---------------------------|
|-12--12-7--7/-8--8-5-----|
|-10--10-5--5/-6--6-3-----|


Chorus

"cuz i dont wanna be one of the boys.."
|---------------------------------|------------------------------------|
|---------------------------------|------------------------------------|
|---------------------------------|------------------------------------|
|-3-3-3-3-3-3-3-3-3-3-3-3-3-3-3-3-|-7-7-7-7-7-7-7-7-7-7-7-7-7-7-7-7----|
|-3-3-3-3-3-3-3-3-3-3-3-3-3-3-3-3-|-7-7-7-7-7-7-7-7-7-7-7-7-7-7-7-7----|
|-1-1-1-1-1-1-1-1-1-1-1-1-1-1-1-1-|-5-5-5-5-5-5-5-5-5-5-5-5-5-5-5-5----|

|---------------------------------|------------------------------------|
|---------------------------------|------------------------------------|
|---------------------------------|------------------------------------|
|-8-8-8-8-8-8-8-8-8-8-8-8-8-8-8-8-|11111111111111111010101010101010----|
|-8-8-8-8-8-8-8-8-8-8-8-8-8-8-8-8-|11111111111111111010101010101010----|
|-6-6-6-6-6-6-6-6-6-6-6-6-6-6-6-6-|-9-9-9-9-9-9-9-9-8-8-8-8-8-8-8-8----|


Verse 2
Bridge
Chorus

"..boys..."
|---------------------------------|
|---------------------------------|
|---------------------------------|
|-3-3-3-3-3-3-3-3-3-3-3-3-3-3-3-3-|
|-3-3-3-3-3-3-3-3-3-3-3-3-3-3-3-3-|
|-1-1-1-1-1-1-1-1-1-1-1-1-1-1-1-1-|


Interlude

"i wanna be a flower, not a dirty weed.."
|-----------------------------|------------------------------|
|-----------------------------|------------------------------|
|-----------------------------|------------------------------|
|-7--7--7--7-7---------------|------------------------------|
|-5--5--5--5-5-7--7--7--7-7/-|-8--8--8--8-8-5--5--5--5-5---|
|---------------5--5--5--5-5/-|-6--6--6--6-6-3--3--3--3-3---|

|-----------------------------|-----------------------------------|
|-----------------------------|-----------------------------------|
|-----------------------------|-5--5--5--5-5---------------------|
|-7--7--7--7-7---------------|-3--3--3--3-3-----7-7-9-9-10-10---|
|-5--5--5--5-5-7--7--7--7-7/-|---------------5-5-----------------|
|---------------5--5--5--5-5/-|-----------------------------------|

|-----------------------------|------------------------------|
|-----------------------------|------------------------------|
|-----------------------------|------------------------------|
|-7--7--7--7-7---------------|------------------------------|
|-5--5--5--5-5-7--7--7--7-7/-|-8--8--8--8-8-5-----5---5----|
|---------------5--5--5--5-5/-|-6--6--6--6-6-3-----3---3----|


"dont wanna be.."
|---------------------------------|------------------------------------|
|---------------------------------|------------------------------------|
|---------------------------------|------------------------------------|
|---------------------------------|------------------------------------|
|-3-3-3-3-3-3-3-3-3-3-3-3-3-3-3-3-|-7-7-7-7-7-7-7-7-7-7-7-7-7-7-7-7----|
|-1-1-1-1-1-1-1-1-1-1-1-1-1-1-1-1-|-5-5-5-5-5-5-5-5-5-5-5-5-5-5-5-5----|
  pm...............................................................

|---------------------------------|------------------------------------|
|---------------------------------|------------------------------------|
|---------------------------------|------------------------------------|
|---------------------------------|------------------------------------|
|-8-8-8-8-8-8-8-8-8-8-8-8-8-8-8-8-|11111111111111111010101010101010----|
|-6-6-6-6-6-6-6-6-6-6-6-6-6-6-6-6-|-9-9-9-9-9-9-9-9-8-8-8-8-8-8-8-8----|
  pm...............................................................


Chorus
Intro

|------|
|------|
|--3---|
|--3---|
|--1---|
|------|

 
 
Katy Perry - One Of The Boys Tab :: indexed at Ultimate Guitar.
One Of The Boys tabs @ 911Tabs

Quick tip, so you can enjoy One Of The Boys Tab even more:

After the registration (which takes just 10 seconds, remember?) you will be able to use your profile - your very own piece of YourChords.com.

Show us your talent, perform One Of The Boys Tab!

Here you can post a video or audio performance. Tell me more ...
Where can we find your performance? Tell me more ...
Your comment:
Please, log in to post your performance.