Artists by letter: A B C D E F G H I J K L M N O P Q R S T U V W X Y Z 0-9
 
Parelima Tab
                                   Parelima


                                                                       1974 A.D.

Tabbed by Praxcid@hotmail.com



Guitar I

Intro
                                                       
E||-----0-------------0-----|-----0-------------0-----|
B||-----0----0--------0-----|-----0----0--------0-----|
G||-----1----2-----2-----2--|-----2----1-----1-----1--|
D||-------------4-----------|-------------2-----------|
A||----------4--------------|--0----------------------|
E||--0----------------------|----------0--------------|


                                                                              
-----0-------------0-----|-----0-------------0-----|-----0-------------0---|
-----0----0--------0-----|-----0----0--------0-----|-----0----0--------0---|
-----1----2-----2-----2--|-----2----1-----1-----1--|-----1----2-----2----2-|
-------------4-----------|-------------2-----------|-------------4---------|
----------4--------------|--0----------------------|----------4------------|
--0----------------------|----------0--------------|--0--------------------|


                                                                              
-----0-------------0-----|-----0-------------0-----|-----0-------------0---|
-----0----0--------0-----|-----0----0--------0-----|-----0----0--------0---|
-----2----1-----1-----1--|-----1----2-----2-----2--|-----2----1-----1----1-|
-------------2-----------|-------------4-----------|-------------2---------|
--0----------------------|----------4--------------|--0--------------------|
----------0--------------|--0----------------------|----------0------------|


                                                                              
-----0-------------0-----|-----0-------------0-----|-----0-------------0---|
-----0----0--------0-----|-----0----0--------0-----|-----0----0--------0---|
-----1----2-----2-----2--|-----2----1-----1-----1--|-----1----2-----2----2-|
-------------4-----------|-------------2-----------|-------------4---------|
----------4--------------|--0----------------------|----------4------------|
--0----------------------|----------0--------------|--0--------------------|


                                                                              
-----0-------------0-----|-----0-------------0-----|-----0-------------0---|
-----0----0--------0-----|-----0----0--------0-----|-----0----0--------0---|
-----2----1-----1-----1--|-----1----2-----2-----2--|-----2----1-----1----1-|
-------------2-----------|-------------4-----------|-------------2---------|
--0----------------------|----------4--------------|--0--------------------|
----------0--------------|--0----------------------|----------0------------|



Guitar II

Intro
                                                                               
                                                                           
------0-------0--------|--------0-------0--------|----------------0--------|
---0-------------0-----|-----0-------------0-----|--------0----------0-----|
1--------2----------2--|--2--------1----------1--|--1--1-----2----------2--|
2--------4-------------|--2--------2-------------|--2--------4-------------|
-----------------------|-------------------------|-------------------------|
-----------------------|-------------------------|-------------------------|

                                                                          
--------0-------0--------|
-----0-------------0-----|
--2--------1----------1--|
--2--------2-------------|
-------------------------|
-------------------------|


First Guitar Solo

Guitar I

                                                                        
|---------------------|
|---------------------|
|---------------------|
|---------------------|
|-----------------2h4-|
|---------------------|


  E        F#m7add11      Asus2     E            and so forth....!!!!                          
---------------------|-------------------------|---4--2--0---------------|
---------------------|-------------------------|---5--4--0--57-5--------|
--------4--2--1----46----4-------------------|-------------46-4--------|
2-------6--4--2-----|--------4h6p4-2----------|-------------------6p4-2--|
---------------------|-------------------------|--------------------------|
---------------------|-------------------------|--------------------------|


                                                                                
-------------------|---7--5--4----------------|----------------4----------|
-------------------|-------------5/7-5---------|----------4h5h7---5--------|
4--4--42-1-------|--------------------6p4----|------4h6------------------|
6--6--64-2-------|------------------------7--|--6h7----------------------|
-------------------|---------------------------|---------------------------|
-------------------|---------------------------|---------------------------|


                                                        
-------------4h5p4-----------|-------------------------|
---5--5--7--------5---------|-------4-4h5--4--4h57---|
----------------------46/4--|---6--------------------|
-----------------------------|-------------------------|
-----------------------------|-------------------------|
-----------------------------|-------------------------|


Final Outro Guitar Solo                                                            

Guitar I

     E        F#m7add11     Asus2       E               
|----------------------|-------------------------|
|----------------------|-------------------------|
|----1h2---4--2--------|--1h2--2--4--4----2p1----|
|--------2-------------|----------------------2--|
|----------------------|-------------------------|
|----------------------|-------------------------|


                                                                        
----------------------|----------------------|-------------------------|
----------------------|----------------------|-----------5--4----------|
---1h2-----4--2-------|---1h2--2--4--4-------|--------4----------4---4-|
-------2--------------|----------------------|----4/6------------------|
----------------------|----------------------|-------------------------|
----------------------|----------------------|-------------------------|


                                                     
--------------------------|-----------------------2-|
--------------------------|-----------5--7----5-----|
4/6-4---------------------|----2/4-4--4--6----4-----|
---------4h6h4-2----------|----4/6------------------|
--------------------------|-------------------------|
--------------------------|-------------------------|


                                                                                
2h4h2h0---4h5h4h0-----------|----------------------|-----------------------|
----------------------------|----------------------|-----------------------|
----------------------------|--1h2-----4--2--------|---1h2--2--4--4---2p1--|
----------------------------|-------2--------------|---------------------2-|
----------------------------|----------------------|-----------------------|
----------------------------|----------------------|-----------------------|

                                                                     
----------------------|----------------------|----------------------|
----------------------|----------------------|----------------------|
--1h2-----4--2--------|---1h2--2--4--4-------|---1h2-----4--2-------|
-------2--------------|----------------------|-------2--------------|
----------------------|----------------------|----------------------|
----------------------|----------------------|----------------------|


                                                                        
-------------------------|----------------------|----------------------|
-------------------------|----------------------|----------------------|
--1h2--2--4--4----2p1----|---1h2-----4--2-------|--1h2--2--4--4--------|
----------------------2--|-------2--------------|----------------------|
-------------------------|----------------------|----------------------|
-------------------------|----------------------|----------------------|


Final Outro
Guitar II

|----------------------|
|----------------------|
|----------1-----------|
|---2--------4--------|
|-------4--------------|
|----------------------|


                                                                        
-------------------------|----------------------|----------------------|
-------------------------|----------------------|----------------------|
-------------------------|----------1-----------|----------------------|
---4--4--6--6----4h2----|---2--------4--------|---4--4--6--6--------|
----------------------2--|-------4--------------|----------------------|
-------------------------|----------------------|----------------------|


                                                                        
----------4-----------|----------4--4-----------|----------4-----------|
---5--------7--------|---5--5----------5h4----|---5--------7--------|
-------4--------------|----------------------4--|-------4--------------|
----------------------|-------------------------|----------------------|
----------------------|-------------------------|----------------------|
----------------------|-------------------------|----------------------|


                                            
----------4--4--------|--0----------------||
---5--5--------------|--0----------------||
----------------------|--1----------------||
----------------------|--2----------------||
----------------------|--2----------------||
----------------------|--0----------------||

Tablature player for this song:
 
 
1974 Ad - Parelima Tab :: indexed at Ultimate Guitar.
Parelima tabs @ 911Tabs
People who played 1974 Ad - Parelima Tab also played these songs by 1974 Ad:
Dherai Dherai Tab, Pahilo Junima Chords, Samjhi Baschhu Tab, Jungi Nissanrato Tab, Nepali Chords, Sombodhan Chords

Quick tip, so you can enjoy Parelima Tab even more:

After the registration (which takes just 10 seconds, remember?) you will be able to use your profile - your very own piece of YourChords.com.

Show us your talent, perform Parelima Tab!

Here you can post a video or audio performance. Tell me more ...
Where can we find your performance? Tell me more ...
Your comment:
Please, log in to post your performance.