Artists by letter: A B C D E F G H I J K L M N O P Q R S T U V W X Y Z 0-9
 
Dont Treat Me Bad Tab
   DON'T TREAT ME BAD
                            As recorded by Firehouse
                         (From the 1990 Album FIREHOUSE)

TRAnSCRIBED BY: Guitar Freakk

----------------------------------------

(Eb Ab Db Gb Bb Eb)
 Intro
|-0--0-0-0-(0)-0-0-0-0-0-|-0--0-0-0-(0)-0-0-0-0-0-|-0--0-0-0-(0)-0-0-0-0-0--|
|-5--5-5-5-(5)-5-5-5-5-5-|-3--3-3-5-(5)-5-5-5-5-5-|-5--5-5-5-(5)-5-5-5-5-5--|
|-6--6-6-4-(4)-4-4-4-4-4-|-2--2-2-4-(4)-4-4-4-4-4-|-6--6-6-4-(4)-4-4-4-4-4--|
|-7--7-7-6-(6)-6-6-6-6-6-|-4--4-4-6-(6)-6-6-6-6-6-|-7--7-7-6-(6)-6-6-6-6-6--|
|------------------------|------------------------|-------------------------|
|------------------------|------------------------|-------------------------|

|-0--0-0-0-(0)-0-0-0-0-0-||--0--0-0-0-(0)-0-0-0-0-0-|-0--0-0-0-(0)-0-0-0-0-0-|
|-3--3-3-0-(0)-0-0-0-0-0-||o-5--5-5-5-(5)-5-5-5-5-5-|-3--3-3-5-(5)-5-5-5-5-5-|
|-2--2-2-1-(1)-1-1-1-1-1-||--6--6-6-4-(4)-4-4-4-4-4-|-2--2-2-4-(4)-4-4-4-4-4-|
|-4--4-4-2-(2)-2-2-2-2-2-||--7--7-7-6-(6)-6-6-6-6-6-|-4--4-4-6-(6)-6-6-6-6-6-|
|--------2-(2)-2-2-2-2-2-||o------------------------|------------------------|
|--------0-(0)-0-0-0-0-0-||-------------------------|------------------------|

|-2--2-2-7-(7)-7-7-7-7--|--------0-(0)-0-0-0-0--|-0--0-0-0-(0)-0-0-0-0-0-|
|-2--2-2-5-(5)-5-5-5-5--|-3--3-3-0-(0)-0-0-0-0--|-5--5-5-5-(5)-5-5-5-5-5-|
|-2--2-2-4-(4)-4-4-4-4--|-4--4-4-1-(1)-1-1-1-1--|-6--6-6-4-(4)-4-4-4-4-4-|
|-4--4-4-6-(6)-6-6-6-6--|-4--4-4-2-(2)-2-2-2-2--|-7--7-7-6-(6)-6-6-6-6-6-|
|-4--4-4-4-(4)-4-4-4-4--|-2--2-2----------------|------------------------|
|-2--2-2----------------|-----------------------|------------------------|

|-0--0-0-0-(0)-0-0-0-0-0-|-2--2-2-7-(7)-7-7-7-7--|--------0-(0)-0-0-0-0--|
|-3--3-3-5-(5)-5-5-5-5-5-|-2--2-2-5-(5)-5-5-5-5--|-3--3-3-0-(0)-0-0-0-0--|
|-2--2-2-4-(4)-4-4-4-4-4-|-2--2-2-4-(4)-4-4-4-4--|-4--4-4-1-(1)-1-1-1-1--|
|-4--4-4-6-(6)-6-6-6-6-6-|-4--4-4-6-(6)-6-6-6-6--|-4--4-4-2-(2)-2-2-2-2--|
|------------------------|-4--4-4-4-(4)-4-4-4-4--|-2--2-2----------------|
|------------------------|-2--2-2----------------|-----------------------|

 Pre Chorus
|--------0-(0)-0-0-0-0-0-|--------2-(2)-2-2-0--|--------0-(0)-0-0-0-0-0-|
|-3--3-3-0-(0)-0-0-0-0-0-|-5--5-5-2-(2)-2-2-0--|-3--3-3-0-(0)-0-0-0-0-0-|
|-4--4-4-1-(1)-1-1-1-1-1-|-6--6-6-2-(2)-2-2-1--|-4--4-4-1-(1)-1-1-1-1-1-|
|-4--4-4-2-(2)-2-2-2-2-2-|-6--6-6-4-(4)-4-4-2--|-4--4-4-2-(2)-2-2-2-2-2-|
|-2--2-2-2-(2)-2-2-2-2-2-|-4--4-4-4-(4)-4-4-2--|-2--2-2-2-(2)-2-2-2-2-2-|
|--------0-(0)-0-0-0-0-0-|--------2-(2)-2-2-0--|--------0-(0)-0-0-0-0-0-|

|--------2-(2)-2-2-0--|--------0-(0)-0-0-0-0-0-|--------2-(2)-2-2-0---|
|-5--5-5-2-(2)-2-2-0--|-3--3-3-0-(0)-0-0-0-0-0-|-5--5-5-2-(2)-2-2-0---|
|-6--6-6-2-(2)-2-2-1--|-4--4-4-1-(1)-1-1-1-1-1-|-6--6-6-2-(2)-2-2-1---|
|-6--6-6-4-(4)-4-4-2--|-4--4-4-2-(2)-2-2-2-2-2-|-6--6-6-4-(4)-4-4-2---|
|-4--4-4-4-(4)-4-4-2--|-2--2-2-2-(2)-2-2-2-2-2-|-4--4-4-4-(4)-4-4-2---|
|--------2-(2)-2-2-0--|--------0-(0)-0-0-0-0-0-|--------2-(2)-2-2-0---|
|
| Gtr II
|---------------------|------------------------|----------14---------|
|---------------------|------------------------|----------14---------|
|---------------------|------------------------|----------------------|
|---------------------|------------------------|----------------------|
|---------------------|------------------------|----------------------|
|---------------------|------------------------|----------------------|

|--------------|---------------|-------0-(0)-0-----|
|-3----(3)-----|---------------|-------0-(0)-0-----|
|-4----(4)-----|---------------|---0h1-------------|
|-4----(4)-----|---------------|-------------------|
|-2----(2)---2-|-2----(2)--2-2-|-2-------------7--|
|------------0-|-0----(0)--0-0-|-0-----------------|

 Chorus
|-------------------------|--------------------|---------------|
|-------------3-3---------|--------------------|------3-3--3-3-|
|-2-2---------4-4---------|-7-7---------9-9-9--|-2-2--4-4--2---|
|-2-2---------4-4---------|-7-7---------9-9-9--|-2-2--4-4--4---|
|-0-0-x-x-x-0-2-2-x-x-x-x-|-5-5-x-x-x-x-7-7-7--|-0-0--2-2--2---|
|-------------------------|--------------------|---------------|

|-----------0-0-0-|-------------------------|--------------------|
|-----------0-0-0-|-------------3-3---------|--------------------|
|-7-7-7-9-9-------|-2-2---------2-2---------|-7-7---------9-9-9--|
|-7-7-7-9-9-------|-2-2---------4-4---------|-7-7---------9-9-9--|
|-5-5-5-7-7-------|-0-0-x-x-x-x-2-2-x-x-x-x-|-5-5-x-x-x-x-7-7-7--|
|---------0-------|-------------------------|--------------------|

|---------------|-0------------|-----------------------|--------------------|
|------3-3------|-0------------|-----------------------|---------------10-9-|
|-2-2--4-4------|-1------------|-2---------------------|-----7-9-9------9-9-|
|-2-2--4-4------|-2------------|-2-----6-7-(7)-----7-6-|-4---7-9-9------9-9-|
|-0-0--2-2--2---|-2------------|-0-x-x-4-5-(5)-0-0-5-4-|-2---5-7-7----------|
|-------------0-|-0-------12--|-----------------------|-----------0-0------|

|-----------------------|-----------------------||
|-----------------------|-------------10--9----o||
|-2---------------------|-----7-9-(9)--9--9-----||
|-2-----6-7-(7)-----7-6-|-4---7-9-(9)--9--9-----||
|-0-x-x-4-5-(5)-0-0-5-4-|-2---5-7-(7)--------0-o||
|-----------------------|-----------------------||
|
| Gtr III
|-----------------------|-----------------------||
|-----------------------|-------------10-12-12-o||
|-----------------------|-----------------------||
|-----------------------|-----------------------||
|-----------------------|----------------------o||
|-----------------------|-----------------------||

 Guitar Solo
|-------------12------------------|-12b14-(12)--12b14==(12)r12-(12)------17-|
|-12b14-(12)-----10-(10)-10-12-10-|----------------------------------/19----|
|---------------------------------|-----------------------------------------|
|---------------------------------|-----------------------------------------|
|---------------------------------|-----------------------------------------|
|---------------------------------|-----------------------------------------|

|-19p17----21-------22p17----21-------19p17-17-----|
|-------17----17-17-------17----17-17----------17--|
|--------------------------------------------------|
|--------------------------------------------------|
|--------------------------------------------------|
|--------------------------------------------------|

|-21b22==(21)r(21)b22==(21)r(21)b22==(21)r(21)---------------|
|----------------------------------------------17-17--/17-19-|
|------------------------------------------------------------|
|------------------------------------------------------------|
|------------------------------------------------------------|
|------------------------------------------------------------|

|-22p17----21p17----22p17----21p17----22p17----21p17----22p17----21b22--|
|-------19-------19-------19-------19-------19-------19-------19--------|
|-----------------------------------------------------------------------|
|-----------------------------------------------------------------------|
|-----------------------------------------------------------------------|
|-----------------------------------------------------------------------|

  Gtr II
|-----------------------------|-------------------|----------------|-------|
|-----------------------------|---3------(3)------|----------------|-------|
|-----------------------------|---2------(2)------|----------------|-------|
|-----------------------------|---4------(4)----9-|-(9)------(9)---|-------|
|-----------------------------|---2------(2)----7-|-(7)------(7)-7-|-7-----|
|-----------------------------|-----------------0-|-(0)------(0)---|-0-----|
|
| Gtr III
|-21----22b24-22b24==(22)----|-(22)r-------------|----------------|-------|
|-----22----------------------|-------------------|--x------------|-x----|
|-----------------------------|-------------------|--x------------|-x----|
|-----------------------------|-------------------|----------------|-------|
|-----------------------------|-------------------|----------------|-------|
|-----------------------------|-------------------|----------------|-------|

|--------------------------------------------|
|--------------------------------------------|
|--------------------------------------------|
|-9-----(9)-(9)----(9)-(9)----(9)-(9)----(9)-|
|-7------------------------------------------|
|-0------------------------------------------|


|-----------------------------------------|
|-----------------------------------------|
|-----------------------------------------|
|-----9-----(9)-(9)----(9)-(9)----(9)-----|
|-(7)-------------------------------------|
|-(0)-------------------------------------|


||--------------------------|----------------------||
||o-------------------------|---------------------o||
||--2-2---------4-4---------|-7-7---------9-9-9---||
||--2-2---------4-4---------|-7-7---------9-9-9---||
||o-0-0-x-x-x-x-2-2-x-x-x-x-|-5-5-x-x-x-x-7-7-7--o||
||--------------------------|----------------------||

   Outro Chorus
||--------------------------|----------------------||
||o-------------------------|---------------------o||
||--2-2---------4-4---------|-7-7---------9-9-9---||
||--2-2---------4-4---------|-7-7---------9-9-9---||
||o-0-0-x-x-x-x-2-2-x-x-x-x-|-5-5-x-x-x-x-7-7-7--o||
||--------------------------|----------------------||

||------------------------|---------------------||
||o-----------------------|---------------10-9-o||
||--2---------------------|-----7-9-9------9-9--||
||--2-----6-7-(7)-----7-6-|-4---7-9-9------9-9--||
||o-0-x-x-4-5-(5)-0-0-5-4-|-2---5-7-7----------o||
||------------------------|-----------0-0-------||

|-----------------|----------|------------|------------*|
|-----------------|----------|------------|------------*|
|---7-9-(9)-9-7-9-|----------|------------|------------*|
|-7-7-9-(9)-9-7-9-|-7--------|-(7)--------|-7----------*|
|-7-5-7-(7)-7-5-7-|-7--------|-(7)--------|-7----------*|
|-5---------------|-5--------|-(5)--------|-5----------*|


Tablature player for this song:
 
 
Firehouse - Dont Treat Me Bad Tab :: indexed at Ultimate Guitar.
Dont Treat Me Bad tabs @ 911Tabs

Quick tip, so you can enjoy Dont Treat Me Bad Tab even more:

After the registration (which takes just 10 seconds, remember?) you will be able to use your profile - your very own piece of YourChords.com.

Show us your talent, perform Dont Treat Me Bad Tab!

Here you can post a video or audio performance. Tell me more ...
Where can we find your performance? Tell me more ...
Your comment:
Please, log in to post your performance.