Artists by letter: A B C D E F G H I J K L M N O P Q R S T U V W X Y Z 0-9
 
Lies Tab
-------------------------------------------------------------------------------
			     Lies - Black Keys
-------------------------------------------------------------------------------
Tabbed by: himktr3000
Email: himktr3000@gmail.com

Tuning:Standard

Hey this is my first tab. I decided to do a simple one from one of my favorite
bands. The Black Keys!

Intro
e|-------------------------------------------------------|
B|-------------------------------------------------------|
G|--6-6-6----------------3h5p3-----------4/7--6--5-----|
D|--8-8-8--7--6-------5-------5---------5/8--7--6-----|
A|--8-8-8--7--6-----5----------5----5---5/8--7--6-----|
E|-----------------3---------------3---------------------|

e|---------------------------------------|
B|---------------------------------------|
G|-------3h5p3-------------3h5p3---------|
D|-----5-------5---------5-------5-------|
A|---5-----------55----5-----------55----|
E|-3-----------------3-------------------|

Verse
e|-----------------------------------------------------------------5~----|
B|----------------------------6h8p6--------------------------------6~----|
G|--------3h5p3-------------7-------7----------3h5p3------------7--7~----|
D|------5-------5---------7----------7-------5-------5--------7----------|
A|----5-----------5p3---5------------------5-----------5p3--5------------|
E|--3------------------------------------3-------------------------------|

e|------------------------------------------------|
B|------------------------------------------------|
G|----------8h10p8----------------8h10p8----------|
D|-------10--------10----------10--------10-------|
A|----10--------------10----10--------------10----|
E|--8---------------------8-----------------------|

e|--------------------------------------|
B|--------------------------------------|
G|--------3h5p3------------3h5p3--------|
D|------5-------5--------5-------5------|
A|----5-----------5----5-----------5----|
E|--3----------------3------------------|
e|------------------------------------------------|
B|------------------------------------------------|
G|----------8h10p8----------------8h10p8----------|
D|-------10--------10----------10--------10-------|
A|----10--------------10----10--------------10----|
E|--8---------------------8-----------------------|

e|--------------------------------------|
B|--------------------------------------|
G|--------3h5p3------------3h5p3--------|
D|------5-------5--------5-------5------|
A|----5-----------5----5-----------5----|
E|--3----------------3------------------|

Chorus
e|-------------------------------------------------------|
B|-------------------------------------------------------|
G|--------7--7--7--7-10-7--5--7-7-7--5-------------------|
D|--5--5--7--7--7--7-10-7--5--7-7-7--5-------------------|
A|--5--5--5--5--5--5-8--5--3--5-5-5--3---5-5-5--8--10----|
E|--3--3-------------------------------------------------|

Bridge
e|----------------------------------------------------------------------------|
B|----------------------------------------------------------------------------|
G|--------3h5p3----------4/7-7---6--5--------3h5p3-----------3h5p3----------|
D|------5-------5--5-----5/8-8---7--6------5-------5-------5-------5--------|
A|----5-----------5------5/8-8---7--6----5-----------5---5-----------5------|
E|--3------------------3-----------------3---------------3---------------3----|

Solo - First Lead played with slide
e|--3-/-6-/-10-/-15---/---18-gradually slide all the way down----|
B|----------------------------------------------------------------|
G|----------------------------------------------------------------|
D|----------------------------------------------------------------|
A|----------------------------------------------------------------|
E|----------------------------------------------------------------|

Solo - Second Lead Guitar also played with slide
e|------------------------------------------------------------------------|
B|------------------------------------------------------------------------|
G|--/1514slide back and forth about 8 times--14gradually slide down ----|
D|------------------------------------------------------------------------|
A|------------------------------------------------------------------------|
E|------------------------------------------------------------------------|

End Slide Section fast alternate picking throughout
e|-----------------------------------------------------------------------|
B|-----------------------------------------------------------------------|
G|--0-/-3-/-7-/-12-/-1514
D|-----------------------------------------------------------------------|
A|-----------------------------------------------------------------------|
E|-----------------------------------------------------------------------|

Song Order:
Intro
Verse
Chorus
Bridge
Verse
Chorus
Bridge
Solo
Verse
Chorus
Bridge
End Slide

Thanks!

| /  slide up
|   slide down
| h  hammer-on
| p  pull-off
| ~  vibrato
| +  harmonic
| x  Mute note
===============================================================================

Tablature player for this song:
 
 
Black Keys - Lies Tab :: indexed at Ultimate Guitar.
Lies tabs @ 911Tabs

About the artist behind Lies Tab:

The Black Keys are a blues-rock music duo consisting of Dan Auerbach (vocals and guitar) and Patrick Carney (drums and percussion) from Akron, Ohio.

Indexed at Wikipedia.

Show us your talent, perform Lies Tab!

Here you can post a video or audio performance. Tell me more ...
Where can we find your performance? Tell me more ...
Your comment:
Please, log in to post your performance.