Artists by letter: A B C D E F G H I J K L M N O P Q R S T U V W X Y Z 0-9
 
Ha Trang-white Summer Tab
WHITE SUMMER
- Trinh Cong Son -
If you find anything better in any part of this song, please send me an email to : 
laiducthinh2004@yahoo.co.uk

E||--------------8/---|--12---------12-----10--8-10-8-5--|
B||-------------------|---------10--10-------------------|
G||-------------------|------9------9--------------------|
D||-------------------|----------------------------------|
A||-------------------|--0--------------0----------------|
E||-------------------|----------------------------------|


                                                                 
---------8--12--10----------10--|-----10--8-10-8-5--------5--8--|
-----10-----------------10--10--|----------------------6--------|
--9-----------------10------10--|-------------------7-----------|
----------------0---------------|--0----------------0-----------|
--0-----------------------------|-------------------------------|
--------------------------------|-------------------------------|


                                                      
--7--------7-----5--0-----|-----------------------1--|
-----------5-----------1--|-----1--3/-5--3-----3--3--|
--------7--7--------------|--2--------------2-----2--|
-----6-----6--------------|--------------------------|
--------------------------|--0-----------0-----------|
--0-----------0-----------|--------------------------|


                                                      
--------1--5--4--7--0-----|--------------------------|
-----3-----------------3--|--1-----1-----------3-----|
--------------------------|--------0-----------1-----|
--------------------------|-----2-----------2--------|
--------------------------|--3--------3--2-----------|
--0-----------0-----------|-----------------------0--|


                                                   
----------------------------------------8-7-8-7-5-|
----------------------------6-5-6-5-4-5-----------|
----------------5-4-5-4---------------------------|
----3-2-3-2-1-2---------6-7-----------------------|
--0-----------------------------------------------|
--------------------------------------------------|


                                                                   
--12---------12-----10--8-10-8-5--|-----5--8--12--10----------10--|
---------10--10-------------------|--5--------------------10--10--|
------9------9--------------------|-------------------10------10--|
----------------------------------|-------------------------------|
--0--------------0----------------|--0------------0---------------|
----------------------------------|-------------------------------|


                                                           
-----10--8-10-8-5--------5--8--|--7--------7-----5--0-----|
----------------------6--------|-----------5-----------1--|
-------------------7-----------|--------7--7--------------|
--0----------------0-----------|-----6-----6--------------|
-------------------------------|--------------------------|
-------------------------------|--0-----------0-----------|


                                                         
-----------------------1--|-----------------0-----------|
-----1--3/-5--3-----3--3--|--------------------3-5-3----|
--2--------------2-----2--|--------------5---------1/5--|
--------------0-----------|-----0--3/-7--7--------------|
--0-----------------------|--------------6--------------|
--------------------------|--1---------------------0----|


                                                                 
------0-5-8h5-0---5-------0-------|--------------------5--5--5--|
----1-----------1---5-------1-----|--1--------------------------|
--2-------------------5-------2---|----2-----2------------------|
------------------------7-------2-|------2-----2----------------|
--0-------------------------------|--------3-----3h0------------|
----------------------------------|-----------------------------|


                                                        
-----5--5--5-----1--5--8/-|--12--0--5--12-----7--7--7--|
--3-----------3-----------|------------10-----9--9--9--|
--------------------------|------------9---------------|
--0-----------0-----------|----------------------------|
--------------------------|--0-------------------------|
--------------------------|----------------0-----------|


                                                            
--4--7--7--7--4--7--7--10--|--8----------8----------8--12--|
--5--9--9--9--5--9--9--12--|--10-----10--10-----10---------|
---------------------------|--9---9------9-----------------|
---------------------------|-------------------------------|
---------------------------|--0--------------0-------------|
--0-----------0------------|-------------------------------|


                                                                
--10------8--12--10-12-10-8---------|-----------------8--5--1--|
------10---------------------10/-6--|--5--------5--------------|
------------------------------------|--------5--5--------------|
--0--------------------0------------|-----7--------------------|
------------------------------------|--0-----------0-----------|
------------------------------------|--------------------------|


                                                     
-----8--5-----------7--5--|--5-----------5----------|
--5--------5--------------|-----------5--5-------1--|
--------------7--5--------|--------5-----5----------|
--------------------------|-----7-------------------|
--0-----------------------|--0-----------0----------|
--------------0-----------|-------------------0-----|


                                                            
--0--------0-----------------|-----------0--------------1--|
-----------1-----3--1-3-1----|--------1-----3-5-3----3--3--|
--------2--2--------------2--|-----2--------------2-----2--|
-----2-----------------------|--2---------------0----------|
--0-----------0--------------|--0--------------------------|
-----------------------------|-----------------------------|


                                                            
-----------------------------|-----------0-----------------|
-----3--1-3-1-------------1--|--0-1-0-------0--------------|
--------------2--------2-----|--------------1-----2--------|
--0--------------0--3--------|--------2--------------2-----|
-----------------------------|--------------------------3--|
-----------------------------|------0----------0-----------|


                                                          
-----------------------1--|------------------------------|
--------------------3--3--|------------------------------|
-----------------2-----2--|--------------5--9--7-10-7-5/-|
--------0--2--0-----------|-----0--3/-7--7----------6----|
--0h-3--------------------|--------------6---------------|
--------------------------|--1----------------------0----|


                                                 
--------------5--0--8-----|--17----------------||
--------5--------------5--|--13----------------||
--2--5-----5--------------|--14----------------||
--------------------------|--5-----------------||
--0-----------------------|--------------------||
--------------------------|--------------------||

Tablature player for this song:
 
 
Trinh Cong Son - Ha Trang-white Summer Tab :: indexed at Ultimate Guitar.
Ha Trang-white Summer tabs @ 911Tabs
People who played Trinh Cong Son - Ha Trang-white Summer Tab also played these songs by Trinh Cong Son:
Mua Hong Chords, Nang Thuy Tinh Chords, Vi Toi Can Thay Em Yeu Doi Chords, Cat Bui Chords

Quick tip, so you can enjoy Ha Trang-white Summer Tab even more:

If you don't really know how to deal with "Absus4" chord and his equally confusing brothers, just put the mouse cursor over them and you will be shown a helpful chord diagram.

Show us your talent, perform Ha Trang-white Summer Tab!

Here you can post a video or audio performance. Tell me more ...
Where can we find your performance? Tell me more ...
Your comment:
Please, log in to post your performance.