Artists by letter: A B C D E F G H I J K L M N O P Q R S T U V W X Y Z 0-9
 
Chiisana Koi No Uta Tab
-------------------------------------------------------------------------------
			     Chiisana Koi No Uta - Mongol 800
-------------------------------------------------------------------------------
Tabbed by: Michael "Rudel" Carter II
Email: fa18resource@yahoo.com

Tuning: Standard

e|--------------------------------------------------------------|
B|--------------------------------------------------------------|
G|----4xxx----8xxx----9xxx----4xxx----8xxx----11xxx----13xxx----|
D|----4xxx----8xxx----9xxx----4xxx----8xxx----11xxx----13xxx----|
A|----2xxx----6xxx----7xxx----2xxx----6xxx-----9xxx----11xxx----|
E|--------------------------------------------------------------|
                                                                
e|------------------------------------------------------------------|
B|------------------------------------------------------------------|
G|----4xxx----8xxx----9xxx----4xxx----8xxx----11xxx----13x----11----|
D|----4xxx----8xxx----9xxx----4xxx----8xxx----11xxx----13x----11----| Let Ring
A|----2xxx----6xxx----7xxx----2xxx----6xxx-----9xxx----11x-----9----|
E|------------------------------------------------------------------|

________________________________________________________________________


e|----------------------------------------------|
B|----------------------------------------------|
G|----4----8----9----4----9----4----11----13----|
D|----4----8----9----4----9----4----11----13----|   x2
A|----2----6----7----2----7----2-----9----11----|
E|----------------------------------------------|

e|-----------------------------------------------------|
B|-----------------------------------------------------|
G|----8----9----11----13----8----9----11----4/----9----|
D|----8----9----11----13----8----9----11----4/----9----|
A|----6----7-----9----11----6----7-----9----2/----7----|
E|-----------------------------------------------------|

________________________________________________________________________


CHORUS
e|-----------------------------------------------|
B|-----------------------------------------------|
G|----9----11----13----8----9----4----11----4----|
D|----9----11----13----8----9----4----11----4----|  x2
A|----7-----9----11----6----7----2-----9----2----|
E|-----------------------------------------------|

e|-------------------------------------------------------|
B|-------------------------------------------------------|
G|----9--11--13--8--9--11--13--7--8--11--13--8--9--11----|
D|----9--11--13--8--9--11--13--7--8--11--13--8--9--11----|
A|----7---9--11--6--7---9--11--5--6---9--11--6--7---9----|
E|-------------------------------------------------------|

________________________________________________________________________


e|----------------------------------------------|
B|----------------------------------------------|
G|----4----8----9----4----9----4----11----13----|
D|----4----8----9----4----9----4----11----13----|   x3
A|----2----6----7----2----7----2-----9----11----|
E|----------------------------------------------|

e|-----------------------------------------------|
B|-----------------------------------------------|
G|----8----9----11----13----8----9----11----4----|
D|----8----9----11----13----8----9----11----4----|
A|----6----7-----9----11----6----7-----9----2----|
E|-----------------------------------------------|

e|-------------------------------|
B|-------------------------------|
G|--11----4----11----4/----11----|
D|--11----4----11----4/----11----|
A|---9----2-----9----2/-----9----|
E|-------------------------------|

________________________________________________________________________


CHORUS
e|-----------------------------------------------|
B|-----------------------------------------------|
G|----9----11----13----8----9----4----11----4----|
D|----9----11----13----8----9----4----11----4----|  x2
A|----7-----9----11----6----7----2-----9----2----|
E|-----------------------------------------------|

e|----------------------------------------------------------|
B|----------------------------------------------------------|
G|----9--11--13--8--9--11--13--7--8--11--13--8--9xxx--11----|
D|----9--11--13--8--9--11--13--7--8--11--13--8--9xxx--11----|
A|----7---9--11--6--7---9--11--5--6---9--11--6--7xxx---9----|
E|----------------------------------------------------------|
________________________________________________________________________

      xxxxxxP.M.xxxxxx
e|------------------------|
B|------------------------|
G|----9----4----9----4----|
D|----9----4----9----4----|
A|----7----2----7----2----|
E|------------------------|

e|------------------------------------------|
B|------------------------------------------|
G|----9----11----13----8----9----4----11----|
D|----9----11----13----8----9----4----11----|
A|----7-----9----11----6----7----2-----9----|
E|------------------------------------------|
________________________________________________________________________

e|-----------------------------------------------|
B|-----------------------------------------------|
G|----9----11----13----8----9----4----11----4----|
D|----9----11----13----8----9----4----11----4----|  x2
A|----7-----9----11----6----7----2-----9----2----|
E|-----------------------------------------------|

e|-----------------------------------------------------------|
B|-----------------------------------------------------------|
G|----9--11--13--8--9--11--13--7--8--11--13--8--9--11----4---|
D|----9--11--13--8--9--11--13--7--8--11--13--8--9--11----4---|
A|----7---9--11--6--7---9--11--5--6---9--11--6--7---9----2---|
E|-----------------------------------------------------------|



| /  slide up
|   slide down
| h  hammer-on
| p  pull-off
| ~  vibrato
| +  harmonic
| x  Mute note
===============================================================================

Tablature player for this song:
 
 
Mongol 800 - Chiisana Koi No Uta Tab :: indexed at Ultimate Guitar.
Chiisana Koi No Uta tabs @ 911Tabs
People who played Mongol 800 - Chiisana Koi No Uta Tab also played these songs by Mongol 800:
Chiisana Koi No Uta Chords, Anata Ni Tab, Message Tab, Dear My Lovers Tab

Quick tip, so you can enjoy Chiisana Koi No Uta Tab even more:

After the registration (which takes just 10 seconds, remember?) you will be able to use your profile - your very own piece of YourChords.com.

Show us your talent, perform Chiisana Koi No Uta Tab!

Here you can post a video or audio performance. Tell me more ...
Where can we find your performance? Tell me more ...
Your comment:
Please, log in to post your performance.