Artists by letter: A B C D E F G H I J K L M N O P Q R S T U V W X Y Z 0-9
 
Jam Tab
	===================================================================================================
	---------------------------------------------------------------------------------------------------
							Jam
	---------------------------------------------------------------------------------------------------
	===================================================================================================

Song: Jam
Album: Pinoy Ako
Artist: Kevin Roy and Cookie Chua

Transcribed by	: Gabriel del Rosario
Age		: 16 y/o
Address		: Encarnation Subdivision San Jose City, Nueva Ecija
School		: Mount Carmel Montessori Center
E mail add	: wackanerdzsz@yahoo.com
Contact number	: 0906 282 1335
Date of tab	: February 3,2007 (5:32-6:36pm)- February 4, 2007 (12:08-2:10pm)

================
Tuning: Standard
================
================
  - Slide down
 h - Hammer-on
 x - Scratch..?!
 ~ - Let ring
================

======
Intro:
======

G|------------------------------------|
D|------------------------------------|
A|--------4~~-(Let Ring)--------------|
E|----4h6-----------------------------|


e|-------------------------------------------------------------------------|
B|------14-----------------------------------------------------------------|
G|--13-------15----15------13----13-----11----11---------------------------|
D|--------------15----15------13----13-----11----11------------------------|
A|-------------------------------------------------------------------------|
E|-------------------------------------------------------------------------|


G|------------------------------------|
D|------------------------------------|
A|--------4~~-(Let Ring)--------------|
E|----4h6-----------------------------|


e|----------------------------------------------------xx---------------------|
B|------14--------------------------------------------xx---------------------|
G|--13-------15----15------13----13-----11----11------xx---------------------|
D|--------------15----15------13----13-----11----11---xx---------------------|
A|----------------------------------------------------xx---------------------|
E|----------------------------------------------------xx---------------------|


G|----------------------------------------------------------------------------|
D|----------------------------------------------------------------------------|
A|---4-4-4----------6-6---2--2-------4-4-4----------6-6--2--2-----------------|
E|----------6-6--6----------2--2------------6-6--6---------2--2---------------|


e|---13~----------------------------------------------------------------------|
B|------------14~------16~----------------------------------------------------|
G|-----------------------------15~-----13~------------------------------------|
D|---------------------------------------------13~------15~-------11~---------|
A|----------------------------------------------------------------------------|
E|----------------------------------------------------------------------------|


G|----------------------------------------------------------------------------|
D|----------------------------------------------------------------------------|
A|---4-4-4----------6-6---2--2-------4-4-4----------6---6---6---6-------------|	 (Slide Down)
E|----------6-6--6----------2--2------------6-6--6----6---6---6---6--6-------|


e|---13~----------------------------------------------------------------------|
B|------------14~------16~----------------------------------------------------|
G|-----------------------------15~-----13~--------------15~----15------------|
D|---------------------------------------------13~----------------------------|
A|----------------------------------------------------------------------------|
E|----------------------------------------------------------------------------|

======
Verse:
======


 Hirap umawit mag-isa...	    ang kasabay lumang gitara...

G|---------------------------------------------------------------------------------------|
D|---------------------------------------------------------------------------------------|
A|-------------------8-8--8-----------8-8--8---6-6--6---8-8--8---10-10--10--8-8----------|
E|-----------6-6--6-----------6-6--6-----------------------------------------------------|


 Parang walang saysay ang kilos ko    sa mundo...

G|---------------------------------------------------------------------------------|
D|---------------------------------------------------------------------------------|
A|----------------6~-------------------6--5----------------------------------------|
E|-----------6h8------------------6h8--------8--6----1----------------------------|


e|------x------------------x----------------------------------------------------------|
B|------x------------------x----------------------------------------------------------|
G|------x-----8~-----------x-------8~--------8----------------------------------------|
D|------x-----8~-----------x-------8~--------8-------8-------------------------------|
A|------x-----6~-----------x-------6~--------6-------8-------------------------------|
E|------x------------------x-------------------------6-------------------------------|


  Pero ang kinabukasan mo...	 tungkulin ba ng ibang tao...

G|---------------------------------------------------------------------------------------|
D|---------------------------------------------------------------------------------------|
A|-------------------8-8--8-----------8-8--8---6-6--6---8-8--8---10-10--10--8-8----------|
E|-----------6-6--6-----------6-6--6-----------------------------------------------------|

    Maghanap ng entablado mo...	   ngayon...


G|---------------------------------------------------------------------------------|
D|---------------------------------------------------------------------------------|
A|----------------6~-------------------6--5---------8-----------------------------|
E|-----------6h8------------------6h8--------8--6----------------------------------|


e|------x------------------x----------------------------------------------------------|
B|------x------------------x----------------------------------------------------------|
G|------x-----8~-----------x-------8~--------8------10-------------------------------|
D|------x-----8~-----------x-------8~--------8------10-------------------------------|
A|------x-----6~-----------x-------6~--------6------8--------------------------------|
E|------x------------------x----------------------------------------------------------|


========
Refrain:
========


  Wag lang pagmasdan ang pangyayari..  gumala't gumalaw...


G|----------------------------------------------------------------------------|
D|----------------------------------------------------------------------------|
A|----------------------------------------------------------------------------|
E|-----------------3-3-3-3--3---1-1-1-1--1---3-3-3-3--3---5-5-5-5--5----------|


e|----------------------------------------------------------------------------|
B|----------------------------------------------------------------------------|
G|----------------------------------------------------------------------------|
D|-----------------5~-------5---3~-------3---5~-------5----7~------7----------|
A|-----------------5~-------5---3~-------3---5~-------5----7~------7----------|
E|-----------------3~-------3---1~-------1---3~-------3----5~------5----------|


  	Lamang sa ihip ng damdamin..   sabay sabay ng sumigaw...


G|----------------------------------------------------------------------------|
D|----------------------------------------------------------------------------|
A|----------------------------------------------------------------------------|
E|-----------------3-3-3-3--3---1-1-1-1--1---2-2-2-2-2-2-2-2---4-4-4-4-4------|


e|----------------------------------------------------------------------------|
B|----------------------------------------------------------------------------|
G|----------------------------------------------------------------------------|
D|-----------------5~-------5---3~-------3---4-4-4-4-4-4-4-4---6-6-6-6-6------|
A|-----------------5~-------5---3~-------3---4-4-4-4-4-4-4-4---6-6-6-6-6------|
E|-----------------3~-------3---1~-------1---2-2-2-2-2-2-2-2---4-4-4-4-4------|


=======
Chorus:
=======

       Kilos kabataan..  oras natin 'to..		Makialam.. makijam.. makilahok...

G|---------------------------------------------------------------------------------------------------------|
D|---------------------------------------------------------------------------------------------------------|
A|--------------4-4-4-4--4--------------------------6-6-6--6-6--------------------------------------------|
E|----------4h6-------------4--4---------------------------------2--2---4--4-4----------------------------|


e|--------x------------------------------------------------------------------------------------------------|
B|--------x------------------------------------------------------------------------------------------------|
G|--------x-----6-6-6-6--6--------------------------8-8-8--8-8--------------------------------------------|
D|--------x-----6-6-6-6--6--6--6-------------------8-8-8--8-8---4--4---6--6-6----------------------------|
A|--------x-----4-4-4-4--4--6--6-------------------6-6-6--6-6---4--4---6--6-6----------------------------|
E|--------x-----------------4--4---------------------------------2--2---4--4-4----------------------------|


     Kilos kabataan..  buhay natin 'to..		Makialam.. makijam.. makilahok...		Makijam ka 
ko!...

G|--------------------------------------------------------------------------------------------------------------------|
D|--------------------------------------------------------------------------------------------------------------------|
A|--------------4-4-4-4--4--------------------------6-6-6--6-6-------------------------------------------------------|
E|----------4h6-------------4--4---------------------------------2--2---4-4--4---6-6--6--4-4--4--4----2-------------|


e|--------x-----------------------------------------------------------------------------------------------------------|
B|--------x-----------------------------------------------------------------------------------------------------------|
G|--------x-----6-6-6-6--6--------------------------8-8-8--8-8-------------------------------------------------------|
D|--------x-----6-6-6-6--6--6--6-------------------8-8-8--8-8---4--4---6-6--6---8-8--8--4-4--4--4----4-------------|
A|--------x-----4-4-4-4--4--6--6-------------------6-6-6--6-6---4--4---6-6--6---8-8--8--4-4--4--4----4-------------|
E|--------x-----------------4--4---------------------------------2--2---4-4--4---6-6--6--2-2--2--2----2-------------|

=============
Repeat Intro:
=============

Note: Half beat lang ang pasok ng 2nd intro na 'to.. Yung tipong biglaan ang pasok (hehehe..)


G|----------------------------------------------------------------------------|
D|----------------------------------------------------------------------------|
A|---4-4-4----------6-6---2--2-------4-4-4----------6-6--2--2-----------------|
E|----------6-6--6----------2--2------------6-6--6---------2--2---------------|


e|---13~----------------------------------------------------------------------|
B|------------14~------16~----------------------------------------------------|
G|-----------------------------15~-----13~------------------------------------|
D|---------------------------------------------13~------15~-------11~---------|
A|----------------------------------------------------------------------------|
E|----------------------------------------------------------------------------|


G|----------------------------------------------------------------------------|
D|----------------------------------------------------------------------------|
A|---4-4-4----------6-6---2--2-------4-4-4----------6---6---6---6-------------|	 (Slide Down)
E|----------6-6--6----------2--2------------6-6--6----6---6---6---6--6-------|


e|---13~----------------------------------------------------------------------|
B|------------14~------16~----------------------------------------------------|
G|-----------------------------15~-----13~--------------15~----15------------|
D|---------------------------------------------13~----------------------------|
A|----------------------------------------------------------------------------|
E|----------------------------------------------------------------------------|

======
Verse:
======

 Gusto ko man maki-isa...	... sa paglutas ng mga problema

G|---------------------------------------------------------------------------------------|
D|---------------------------------------------------------------------------------------|
A|-------------------8-8--8-----------8-8--8---6-6--6---8-8--8---10-10--10--8-8----------|
E|-----------6-6--6-----------6-6--6-----------------------------------------------------|


 Anong magagawa ng isang katulad ko...

G|---------------------------------------------------------------------------------|
D|---------------------------------------------------------------------------------|
A|----------------6~-------------------6--5----------------------------------------|
E|-----------6h8------------------6h8--------8--6----1----------------------------|


e|------x------------------x----------------------------------------------------------|
B|------x------------------x----------------------------------------------------------|
G|------x-----8~-----------x-------8~--------8----------------------------------------|
D|------x-----8~-----------x-------8~--------8-------8-------------------------------|
A|------x-----6~-----------x-------6~--------6-------8-------------------------------|
E|------x------------------x-------------------------6-------------------------------|


  Pero ang kinabukasan mo..	 tungkulin ba ng ilang tao...

G|---------------------------------------------------------------------------------------|
D|---------------------------------------------------------------------------------------|
A|-------------------8-8--8-----------8-8--8---6-6--6---8-8--8---10-10--10--8-8----------|
E|-----------6-6--6-----------6-6--6-----------------------------------------------------|

   Makibahagi sa bagahe ng mundo..


G|---------------------------------------------------------------------------------|
D|---------------------------------------------------------------------------------|
A|----------------6~-------------------6--5---------8-----------------------------|
E|-----------6h8------------------6h8--------8--6----------------------------------|


e|------x------------------x----------------------------------------------------------|
B|------x------------------x----------------------------------------------------------|
G|------x-----8~-----------x-------8~--------8------10-------------------------------|
D|------x-----8~-----------x-------8~--------8------10-------------------------------|
A|------x-----6~-----------x-------6~--------6------8--------------------------------|
E|------x------------------x----------------------------------------------------------|


========
Refrain:
========


  Wag lang pagmasdan ang pangyayari..       ..gumala't gumalaw..

G|----------------------------------------------------------------------------|
D|----------------------------------------------------------------------------|
A|----------------------------------------------------------------------------|
E|-----------------3-3-3-3--3---1-1-1-1--1---3-3-3-3--3---5-5-5-5--5----------|


e|----------------------------------------------------------------------------|
B|----------------------------------------------------------------------------|
G|----------------------------------------------------------------------------|
D|-----------------5~-------5---3~-------3---5~-------5----7~------7----------|
A|-----------------5~-------5---3~-------3---5~-------5----7~------7----------|
E|-----------------3~-------3---1~-------1---3~-------3----5~------5----------|


  Lamang sa ihip ng damdamin..		sabay sabay ng sumigaw..


G|----------------------------------------------------------------------------|
D|----------------------------------------------------------------------------|
A|----------------------------------------------------------------------------|
E|-----------------3-3-3-3--3---1-1-1-1--1---2-2-2-2-2-2-2-2---4-4-4-4-4------|


e|----------------------------------------------------------------------------|
B|----------------------------------------------------------------------------|
G|----------------------------------------------------------------------------|
D|-----------------5~-------5---3~-------3---4-4-4-4-4-4-4-4---6-6-6-6-6------|
A|-----------------5~-------5---3~-------3---4-4-4-4-4-4-4-4---6-6-6-6-6------|
E|-----------------3~-------3---1~-------1---2-2-2-2-2-2-2-2---4-4-4-4-4------|


=======
Chorus:
=======
       Kilos kabataan..  oras natin 'to..		Makialam.. makijam.. makilahok...

G|---------------------------------------------------------------------------------------------------------|
D|---------------------------------------------------------------------------------------------------------|
A|--------------4-4-4-4--4--------------------------6-6-6--6-6--------------------------------------------|
E|----------4h6-------------4--4---------------------------------2--2---4--4-4----------------------------|


e|--------x------------------------------------------------------------------------------------------------|
B|--------x------------------------------------------------------------------------------------------------|
G|--------x-----6-6-6-6--6--------------------------8-8-8--8-8--------------------------------------------|
D|--------x-----6-6-6-6--6--6--6-------------------8-8-8--8-8---4--4---6--6-6----------------------------|
A|--------x-----4-4-4-4--4--6--6-------------------6-6-6--6-6---4--4---6--6-6----------------------------|
E|--------x-----------------4--4---------------------------------2--2---4--4-4----------------------------|


     Kilos kabataan..  buhay natin 'to..	   Makialam.. makijam.. makilahok...		Makijam 
pare ko!...

G|--------------------------------------------------------------------------------------------------------------------|
D|--------------------------------------------------------------------------------------------------------------------|
A|--------------4-4-4-4--4--------------------------6-6-6--6-6-------------------------------------------------------|
E|----------4h6-------------4--4---------------------------------2--2---4-4--4---6-6--6--4-4--4--4----2-------------|


e|--------x-----------------------------------------------------------------------------------------------------------|
B|--------x-----------------------------------------------------------------------------------------------------------|
G|--------x-----6-6-6-6--6--------------------------8-8-8--8-8-------------------------------------------------------|
D|--------x-----6-6-6-6--6--6--6-------------------8-8-8--8-8---4--4---6-6--6---8-8--8--4-4--4--4----4-------------|
A|--------x-----4-4-4-4--4--6--6-------------------6-6-6--6-6---4--4---6-6--6---8-8--8--4-4--4--4----4-------------|
E|--------x-----------------4--4---------------------------------2--2---4-4--4---6-6--6--2-2--2--2----2-------------|

=======
Bridge:
=======


    Matuto kang makisaya, ang mundo ma'y magkaiba. Sabay sabay kung mag ingay, 
magpakilala!..

G|------------------------------------------------------------------------------------------------------------|
D|------------------------------------------------------------------------------------------------------------|
A|------------------------------------------------------------------------------------------------------------|
E|-------2--2-2-2--2--3--3-3-3--3--4--4-4-4-4--4--5--5-5-5--5--6-6-6-6-6-6-6-6--6----------------------------|


e|---------------------------------------------------------------------------------------------------------|
B|---------------------------------------------------------------------------------------------------------|
G|---------------------------------------------------------------------------------------------------------|
D|-------4--4-4-4--4--5--5-5-5--5--6--6-6-6-6--6--7--7-7-7--7--8-8-8-8-8-8-8-8--8-------------------------|
A|-------4--4-4-4--4--4--4-4-4--4--6--6-6-6-6--6--6--6-6-6--6--8-8-8-8-8-8-8-8--8-------------------------|
E|-------2--2-2-2--2--3--3-3-3--3--4--4-4-4-4--4--5--5-5-5--5--6-6-6-6-6-6-6-6--6-------------------------|

=======
Chorus:
=======


Note: Transposed itong chorus na itech. One step higher siya.

    Kilos kabataan!.. oras natin 'to..   ..makialam  makijam  makilahok..

G|------------------------------------------------------------------------------------|
D|------------------------------------------------------------------------------------|
A|---------6--6-6-6--6---------------------8--8-8-8----8-----------------------------|
E|----6h8----------------6--6------------------------------4--4--6-6--6--------------|


e|--x---------------------------------------------------------------------------------|
B|--x---------------------------------------------------------------------------------|
G|--x------8--8-8-8--8---------------------10--10-10-10--10---------------------------|
D|--x------8--8-8-8--8---8--8-------------10--10-10-10--10--6--6--8-8--8-------------|
A|--x------6--6-6-6--6---8--8-------------8---8--8--8---8---6--6--8-8--8-------------|
E|--x--------------------6--6-------------------------------4--4--6-6--6-------------|

	Kilos kabataan!.. buhay natin to..           ..makialam makijam makilahok..	 makijam ka 
ko!..

G|--------------------------------------------------------------------------------------------------------|
D|--------------------------------------------------------------------------------------------------------|
A|---------6--6-6-6--6---------------------8--8-8-8----8-------------------------------------------------|
E|----6h8----------------6--6------------------------------4--4--6-6--6---8--8---6-6--6---4-------------|


e|--------------------------------------------------------------------------------------------------------|
B|--------------------------------------------------------------------------------------------------------|
G|---------8--8-8-8--8---------------------10--10-10-10--10-----------------------------------------------|
D|---------8--8-8-8--8---8--8-------------10--10-10-10--10--6--6--8-8--8--10-10--8-8--8---6-------------|
A|---------6--6-6-6--6---8--8-------------8---8--8--8---8---6--6--8-8--8--10-10--8-8--8---6-------------|
E|-----------------------6--6-------------------------------4--4--6-6--6--8--8---6-6--6---4-------------|

======
Outro:
======


Note: Intro na one step higher ito. Transposed uli (hehehe..).


G|------------------------------------------------------------------------------------------------|
D|------------------------------------------------------------------------------------------------|
A|--------6-6--6------------8--8---4--4----------6-6--6-----------8--8---4--4---------------------|
E|-----------------8-8--8------------4--4----------------8-8--8------------4--4-------------------|


e|---------15~------------------------------------------------------------------------------------|
B|-------------------16~-------18~----------------------------------------------------------------|
G|---------------------------------------17~-------15~--------------------------------------------|
D|---------------------------------------------------------15~-------17~------13~-----------------|
A|------------------------------------------------------------------------------------------------|
E|------------------------------------------------------------------------------------------------|


G|------------------------------------------------------------------------------------------------|
D|------------------------------------------------------------------------------------------------|
A|--------6-6--6------------8--8---4--4----------6-6--6-----------8--8--8--8----------------------|
E|-----------------8-8--8------------4--4----------------8-8--8-----8--8--8--8---8---------------|


e|---------15~------------------------------------------------------------------------------------|
B|-------------------16~-------18~----------------------------------------------------------------|
G|---------------------------------------17~-------15~--------------17~----------17--------------|
D|---------------------------------------------------------15~------------------------------------|
A|------------------------------------------------------------------------------------------------|
E|------------------------------------------------------------------------------------------------|

						-END-


Questions? Comments? Suggestions? Corrections?
Paki E-mail me!: wackanerdzsz@yahoo.com

Tablature player for this song:
 
 
Kevin Roy And Cookie Chua - Jam Tab :: indexed at Ultimate Guitar.
Jam tabs @ 911Tabs

Quick tip, so you can enjoy Jam Tab even more:

If you spend just 10 seconds to register, you will be able to comment on all the chords and tabs and rate them. You will as well be able to comment on videos of your fellow guitarists and give them ratings from 1 to 5 ... And - of course - you can share your own videos with them and see what they think of you. :)
Click here to join us!

Show us your talent, perform Jam Tab!

Here you can post a video or audio performance. Tell me more ...
Where can we find your performance? Tell me more ...
Your comment:
Please, log in to post your performance.