Artists by letter: A B C D E F G H I J K L M N O P Q R S T U V W X Y Z 0-9
 
Silver Words Bass Tab
    Title - Silver Words
    Artist - Ken Boothe
    Tabbed by - Mat Bean
    E-mail - mattydread2@yahoo.com

     intro; -
  G|--------------------------------------------------------------|
  D|--------------------------------------------------------------|
  D|--------------------------------------------------------------|
  A|--8-8---8-6-8--------------------8-8---8-6-8------------------|
  E|---------------10-10---10-8-10----------------10-10--10-8-10--|
  
     verse;
  G|--------------------------------------------|
  D|-----10-10----------------------------------|
  A|--8---------------8-8-----------------------|
  E|-------------8-10-------10-8-10----10-8-10--|

  G|--------------------------------------------|
  D|-----10-10----------------------------------|
  A|--8---------------8-8-----------------------|
  E|-------------8-10-------8-6-8----8-6-8------|

       chorus;
  G|----------------------------------------------------|
  D|----------------------------------------------------|
  A|--------------8-8--6-8-6----------------8-8--8-6-8--|
  E|--6-6--6-4-6----------------6-6--6-4-6--------------|

  G|------------------------------------------------------------|
  D|------------------------------------------------------------|
  A|-------8-6-8----------8-6-8----------8-6-8------------------|
  E|--6-6------------6-6------------6-6-------------8-8--3-1-3--|
  
       outro to fade
  G|--------------------------------------------|
  D|-----10-10----------------------------------|
  A|--8---------------8-8-----------------------|
  E|-------------8-10-------10-8-10----10-8-10--|

   Song Structure- intro      Ken Boothe off.website; www.kenboothemusic.com
                   verse X2
                   chorus X1
                   verse X2
                   chorus X1
                   first part of verse to fade...

Tablature player for this song:
 
 
Ken Boothe - Silver Words Bass Tab :: indexed at Ultimate Guitar.
Silver Words Bass tabs @ 911Tabs
People who played Ken Boothe - Silver Words Bass Tab also played these songs by Ken Boothe:
Everything I Own Chords

Quick tip, so you can enjoy Silver Words Bass Tab even more:

After the registration (which takes just 10 seconds, remember?) you will be able to use your profile - your very own piece of YourChords.com.

Show us your talent, perform Silver Words Bass Tab!

Here you can post a video or audio performance. Tell me more ...
Where can we find your performance? Tell me more ...
Your comment:
Please, log in to post your performance.