Artists by letter: A B C D E F G H I J K L M N O P Q R S T U V W X Y Z 0-9
 
La Mora Limpia Tab
Thanks to my student Richard Centeno for introducing me to the song La Mora Limpia and
history about Nicaragua.

e|---0---2----4-----9---7---7----11-----11----9---9---7---5---4---2---0------|
B|---------------------------------------------------------------------------|
G|-1---2----4---4/9---8---8---11----11------9---9---8---6---4---2---1--------|
D|---------------------------------------------------------------------------|
A|---------------------------------------------------------------------------|
E|---------------------------------------------------------------------------|

e|----2---4---7---6---7---5---4---2--0---------------------------------------|
B|-----------------------------------0---------------------------------------|
G|--2---4---7---5---8---6---4---2----1---------------------------------------|
D|-----------------------------------2---------------------------------------|
A|-----------------------------------2---------------------------------------|
E|---------------------------------------------------------------------------|

e|----------------0---0-2-0---0-----0-0---0---0h3h2p0---2---0----------------|
B|-----------1-1----4-------4---0---0-0-----4---------4---1-----4---1---0----|
G|-----1-2-4---2------------------2-2-2-----------------------4---2---0------|
D|-2-4---------2--------------------2-2--------------------------------------|
A|----------------------------------0-0--------------------------------------|
E|---------------------------------------------------------------------------|

e|------0-0------------------------------------------------------------------|
B|------0-0------------------------------------------------------------------|
G|----2-0-0------------------------------------------------------------------|
D|--4---2-2------------------------------------------------------------------|
A|------2-2------------------------------------------------------------------|
E|------0-0------------------------------------------------------------------|

e|----------------0---0-2-0---0-----0-0---0---0h3h2p0---2---0------------------|
B|-----------1-1----4-------4---0---0-0-----4---------4---1-----4---1---0------|
G|-----1-2-4---2------------------2-2-2---------------------4---2---0----------|
D|-2-4---------2--------------------2-2----------------------------------------|
A|----------------------------------0-0----------------------------------------|
E|-----------------------------------------------------------------------------|

e|------0-0---0---3-2-0---0-2-2-5-5-8--8--7--0---3-2-0---0-2-2-5-5-8--87----|
B|------0-0-----4-------4---4-4-7-7-10-10-8----4-------4---4-4-7-7-10-10-8---|
G|----2-0-0------------------------------------------------------------------|
D|--4---2-2------------------------------------------------------------------|
A|------2-2------------------------------------------------------------------|
E|------0-0------------------------------------------------------------------|

e|---------8-7----7-------10---10-7-----7-8-7--------7-8-7-----7-8-7---------|
B|-10-9-10-----10-8---8-------------8---------10-7---------8---------10-7----|
G|----------------7-7---7----7--------7------------8---------9------------8--|
D|---------------------------------------------------------------------------|
A|---------------------------------------------------------------------------|
E|---------------------------------------------------------------------------|

e|--7-8-7------------0-------0--2-1-2-5-3-2-3-0-------0-------0-2-3----------|
B|--------8----1-0-1---3-1-0-0----------------0-1-0-1---3-1-0----------------|
G|----------9----------------0----------------0------------------------------|
D|-------------0-------------2----------------2------------------------------|
A|---------------------------2----------------2-0----------------------------|
E|------------------------------------------0---------------0----------------|

e|--2-0-2---0-----------------------------------------------------------------|
B|--------4-0-----------------------------------------------------------------|
G|----------1-----------------------------------------------------------------|
D|----------2-----------------------------------------------------------------|
A|----------2-----------------------------------------------------------------|
E|----------0-----------------------------------------------------------------|


| /  slide up
|   slide down
| h  hammer-on
| p  pull-off
| ~  vibrato
| +  harmonic
| x  Mute note
=============================================================================

Tablature player for this song:
 
 
Justo Santos - La Mora Limpia Tab :: indexed at Ultimate Guitar.
La Mora Limpia tabs @ 911Tabs

Quick tip, so you can enjoy La Mora Limpia Tab even more:

After the registration (which takes just 10 seconds, remember?) you will be able to use your profile - your very own piece of YourChords.com.

Show us your talent, perform La Mora Limpia Tab!

Here you can post a video or audio performance. Tell me more ...
Where can we find your performance? Tell me more ...
Your comment:
Please, log in to post your performance.