Artists by letter: A B C D E F G H I J K L M N O P Q R S T U V W X Y Z 0-9
 

Danger Tab
#----------------------------------PLEASE NOTE---------------------------------#
#This file is the author's own work and represents their interpretation of the #
#song. You may only use this file for private study, scholarship, or research. #
#------------------------------------------------------------------------------#

Date: 20.03.2007
Tabbed by Peter Tuyp (peter.tuyp@wxs.nl)

Subject:
JJ Cale & Eric Clapton - Danger (Road to Escondido)

Chords
E	022100
Gsus2	320033
D	x00232
G	320003
A	x02220

Intro:
          E   Gsus2 D E   Gsus2 D E   Gsus2 D E  
|---------|
|---------|
|---------|
|-----0---|
|-2-2---2-|
|---------|


Verse 1:
E     Gsus2 D           E      Gsus2   D     
Danger is out into the night
E     Gsus2   D            E      
Danger she's such a pretty sight
E                  A               E                 A
She was treated so badly it seems, now she's looking for a dream
E     Gsus2 D           E
Danger is out into the night

Verse 2:
E     Gsus2 D                E      Gsus2   D 
Danger she walks the streets alone
E     Gsus2    D               E      
Danger all the bars she has to know
E                A            E              A
All the men that look her way could be hers, hers today
E     Gsus2 D           E
Danger is out into the night

Chorus:
G             A           G              A
Locked into a love affair didn't seem to go nowhere
G                  A
With no choice she thought she might
G                     A        
Caution to the wind, right into the night

Verse 3:
E     Gsus2 D                E     Gsus2      D              E    
Danger she walks the streets alone    All the bars she and I know
Gsus2    D                E    Gsus2       D      E
All the men that look her way     could be hers today

Solo 1, Guitar 1:
  E                                        G                 D           E
|-----------------10-11b12-11b12-11b12-----14b15r14-12------------------------------|
|---------8-12-12--------------------------------------14b15-12----12-------12b134-|
|-----7-9-------------------------------------------------------14----12----12b134-|
|-9-9--------------------------------------------------------------------14---------|
|-----------------------------------------------------------------------------------|
|-----------------------------------------------------------------------------------|
  
  G           D       E                                      G           D       E              
|-11b12-11b12---12-12-10------------------------------------------------------------|
|------------------------12-11-10------10------10-----------------------------------|
|-------------9-------------------12-9----9-12----12-12-9----9----------------------|
|---------------------------------------------------------12----7h9p7----7-7--------|
|---------------------------------------------------------------------10-----10-7-7-|
|-----------------------------------------------------------------------------------|

  E                                                      G        D
|-17b19r17-16--------------------------------15/16-17-17-17-16-17-19--------|
|-------------17--------------------------17--------------------------------|
|----------------12/14-12----------------------------------------------9/16-|
|-------------------------14------------------------------------------------|
|----------------------------14---------------------------------------------|
|-------------------------------15-12---------------------------------------|

  E                       G       D    E
|-12-14b16r14b16r14p12-14---12p10-12--------11b12-11b12-----11b12-11b12-|
|----------------------------------------12--------------12-------------|
|-----------------------------------------------------------------------|
|-----------------------------------------------------------------------|
|-----------------------------------------------------------------------|
|-----------------------------------------------------------------------|

  G                 D              E
|-11b12-12-12-11b12-12-12-11b12-12-12-14b15r14b15r14b15r14-16b17r16-14b15r14-12b13r12-123-|
|------------------------------------------------------------------------------------------|
|------------------------------------------------------------------------------------------|
|------------------------------------------------------------------------------------------|
|------------------------------------------------------------------------------------------|
|------------------------------------------------------------------------------------------|

Chorus:
G                A      
Will she take to find someone new
G                A
She goes nowhere    I've been
G               A
She wants to do too many guys
G             A
Shes gone out to the night

Verse 4:
E     Gsus2   D           E      Gsus2   D
Danger she's out into the night
E     Gsus2   D            E
Danger she's such a pretty sight

Solo 2, Guitar 2:
  E              Gsus2    D        E        Gsus2 D       E
|------------------------------------------------------------|
|---9-9----11b12-10------------------------------12-10-10/12-|
|-9-----------------12-11----11----9-9-----------12----------|
|-------------------------12----12-----9----9----------------|
|----------------------------------------12------------------|
|------------------------------------------------------------|

  E     Gsus2 D          E                        
|-10b12r10b12-10----10------12-14b15-14-12-|
|----------------12----12------------------|
|------------------------------------------|
|------------------------------------------|
|------------------------------------------|
|------------------------------------------|

  E                                      Gsus2 D
|-7-10-7h10p7----7-7-7-10-7h10p7----7-10/12----10-|
|-------------10-----------------10---------12----|
|-------------------------------------------------|
|-------------------------------------------------|
|-------------------------------------------------|
|-------------------------------------------------|
  
  E                      Gsus2 D    E         G        D   E
|----7-10-7h10p7----7-7-75-----3/5--------------------------|
|-10-------------10-----------------8-5---5-7b7+-87-5-7-----|
|---------------------------------------7----------------7-9-|
|------------------------------------------------------------|
|------------------------------------------------------------|
|------------------------------------------------------------|

  E
|---7-10-8-7----7---------------------------------------|
|------------10---10-8-10-8p7---7-----------------------|
|-9---------------------------9---9p7---7---------------|
|-------------------------------------9---9p7-----------|
|---------------------------------------------107-7----|
|-------------------------------------------------------|

Solo 3, guitar 1:
  E        Gsus2 D       E           Gsus2      D             E
|--------7------------------------12---15-14-12-----------------|
|-9b10r9---10-7--8p7p5---5--12/14---------------15-12-----------|
|----------------------7-------------------------------8h10-8---|
|-------------------------------------------------------------9-|
|---------------------------------------------------------------|
|---------------------------------------------------------------|

  E        Gsus2 D        E
|-------12---b16r14-12----11b12-12-11b12-12-11b12---15b16-17-19-20b21-19-|
|-12/14----------------15------------------------------------------------|
|------------------------------------------------------------------------|
|------------------------------------------------------------------------|
|------------------------------------------------------------------------|
|------------------------------------------------------------------------|

  E     Gsus2 D   E          Gsus2   D                    E
|-15b16-12-----b19r17-127------11b12-11b12-11b12-11b12---11b12-11b12-113-|
|------------------------------12--------------------------------------------|
|----------------------------------------------------------------------------|
|----------------------------------------------------------------------------|
|----------------------------------------------------------------------------|
|----------------------------------------------------------------------------|

  Gsus2     D      E
|-10----------------------------------------------|
|----11b12-10--------5-5-5-5-5--5-5-5-5-5-5-5-5-5-|
|-------------12-94-4-4-4-4-4--4-4-4-4-4-4-4-4-4-|
|--------------------2-2-2-2-2--2-2-2-2-2-2-2-2-2-|
|-------------------------------------------------|
|-------------------------------------------------|

Verse 5:
E     Gsus2   D           E      Gsus2   D
Danger she's out into the night
E     Gsus2   D            E      Gsus2   D
Danger she's such a pretty sight
E     Gsus2   D           E      Gsus2   D
Danger she's out with you tonight
E     Gsus2   D            E
Danger she's such a pretty sight

E   Gsus2 D E   Gsus2 D E   Gsus2 D E   Gsus2 D E   Gsus2 D E   Gsus2 D E   



Tablature player for this song:
 
 
Jj Cale And Eric Clapton - Danger Tab :: indexed at Ultimate Guitar.
Danger tabs @ 911Tabs
People who played Jj Cale And Eric Clapton - Danger Tab also played these songs by Jj Cale And Eric Clapton:
Sporting Life Blues Tab, Hard To Thrill Tab, Danger Chords

Quick tip, so you can enjoy Danger Tab even more:

If you don't really know how to deal with "Absus4" chord and his equally confusing brothers, just put the mouse cursor over them and you will be shown a helpful chord diagram.

Show us your talent, perform Danger Tab!

Here you can post a video or audio performance. Tell me more ...
Where can we find your performance? Tell me more ...
Your comment:
Please, log in to post your performance.