Artists by letter: A B C D E F G H I J K L M N O P Q R S T U V W X Y Z 0-9

 
To An Actress Tab
                           Tabbed by: Mark Peters
                       Email: markpeterz@hotmail.co.uk

This song is awesome. 'Go Big Casino' is pretty much a side line project of Jim Adkins
driven quite a few songs on to Jimmy Eat World' albums over the past few years. 'Hear You
'My Sundown' etc..

I tabbed this from an acoustic.. so not sure it'll sound entirely right on Electric.. 
do though!

Tuning: Standard, Capo 2 (Not relative to capo)


VERSES:

PART 1

e|-------------------------------------------------|
B|-------------------------------------------------|
G|-------------------------------------------------|
D|------0----0-----0-----0----0----0----0-------0--|
A|---9----9----11----11----7----7----7----6-6h7----|
E|-------------------------------------------------|

PART 2

e|----------------------------------------------------------------------------|
B|----------------------------------------------------------------------------|
G|----------------------------------------------------------------------------|
D|------0----0-----0-----0----0----0----0-------0----0----0----0----0---0-----|
A|---9----9----11----11----7----7----7----6-6h7----9----9----11--14--16--12---|
E|----------------------------------------------------------------------------|


e|---------------------------------------------------------------------------|
B|---------------------------------------------------------------------------|
G|----------------------------------(REPEAT)-----------------------------------------|
D|------0----0----0-------------------------------------------------------------|
A|---12---12---12---12---------------------------------------------------------------|
E|---------------------------------------------------------------------------|




2.16 (little solo)

e|-------------------------------------|
B|---12--10--9--7--2/3-----12--14--10--|
G|----------------------2--------------|
D|-------------------------------------|
A|-------------------------------------|
E|-------------------------------------|


e|-------------------------------------|
B|---12--10--9--7--2/3-----12--12--14--|
G|----------------------2--------------|
D|-------------------------------------|
A|-------------------------------------|
E|-------------------------------------|


4.04 (REPEAT X 3)

e|-------------------------------------|
B|---12--10--9--7--2/3-----12--14--10--|
G|----------------------2--------------|
D|-------------------------------------|
A|-------------------------------------|
E|-------------------------------------|


e|---------------------------------------------------------------------------------------|
B|---------------------------------------------------------------------------------------|
G|---9--9--8--9--11--9--8h9--------------------------------------------------------------|
D|---------------------------9-----------------------------------------------------------|
A|---------------------------------------------------------------------------------------|
E|---------------------------------------------------------------------------------------|

4.49 (pick each note a few more times towards the end)

e|-------------------------------------------------12--12--11--12/14--12--|
B|---12--10--9--7--2/3-----12--14--10--14--14--14-------------------------|
G|----------------------2-------------------------------------------------|
D|------------------------------------------------------------------------|
A|------------------------------------------------------------------------|
E|------------------------------------------------------------------------|

e|--11--11--12--12--12--12---(

 
 
Go Big Casino - To An Actress Tab :: indexed at Ultimate Guitar.
To An Actress tabs @ 911Tabs
People who played Go Big Casino - To An Actress Tab also played these songs by Go Big Casino:
Two Serenades Tab, To An Actress, Two Serenades

Quick tip, so you can enjoy To An Actress Tab even more:

After the registration (which takes just 10 seconds, remember?) you will be able to use your profile - your very own piece of YourChords.com.

Show us your talent, perform To An Actress Tab!

Here you can post a video or audio performance. Tell me more ...
Where can we find your performance? Tell me more ...
Your comment:
Please, log in to post your performance.