Artists by letter: A B C D E F G H I J K L M N O P Q R S T U V W X Y Z 0-9
 
Green Onions Bass Tab
ok, well first off. with blues-y songs like this not all tabs are wrong, they are just
differently, witch is the beauty of jazz swing and blues tunes. This is jsut the way that 
heard it, so dont tell me that im wrong.

NOTE: the rythm is swung (if you dont know what that means jsut follow the rythm of the 
cymbol of the drums)

(few measures of rest, then drums and bass kick in)

G:-------------|
D:-------------|
A:-------00-2--|
E:--2-2--------|

the fifth time move it up a string, like this;

G:---------------------|
D:-------00-2-----00-2-|
A:--2-2-------2-2------|
E:---------------------|

then back down like this

G:-------------------|
D:-------------------|
A:------00-2----00-2-|
E:--2-2------2-2-----|

then it follows this pattern

G-----00-2----00-2-----------------------------------|
D--2-2-----2-2---------00-2----00-2------------------|
A------------------2-2------2-2---------00-2----00-2-|
E-----------------------------------2-2------2-2-----|

thats the first thirty seconds of the tune, you can pretty much play through the entire 
using that patter, its pretty simple, but the key this is if the guitar goes up in 
generally, thats your que to move up a string, and likewise with going down in pitch (move down a string)

Tablature player for this song:
 
 
Booker T The Mgs - Green Onions Bass Tab :: indexed at Ultimate Guitar.
Green Onions Bass tabs @ 911Tabs

Quick tip, so you can enjoy Green Onions Bass Tab even more:

YourChords.com Guitar Chords and Tabs Archive is currently indexing over 240'000 songs from 21'000+ different artists. And new chords just keep on coming in, so you will surely never run out of them.

Show us your talent, perform Green Onions Bass Tab!

Here you can post a video or audio performance. Tell me more ...
Where can we find your performance? Tell me more ...
Your comment:
Please, log in to post your performance.