Artists by letter: A B C D E F G H I J K L M N O P Q R S T U V W X Y Z 0-9
 
Maniwala Ka Sana Tab
*********************************************************************************
				Song: Maniwala ka sana
				Band: Parokya ni edgar
				Transcribed by: shortysphere
*********************************************************************************
Standard tuning (eBGDAE)

Legend:

|  h  Hammer-on
|  p  Pull-off
|  /  Slide up
|    Slide down
|  ~  Let ring
|  ^  Bend
|  x  Mute note


shortysphere@yahoo.com
3:23 PM O1/29/04
_________________________________________________________________________________

Intro:

Guitar I
e|0~------0~----------------------12-12-12-12-12-12-12-12-12-12-12-13-13-13-13-13-15-15-15-15-15-
B|1-1-0-1-1-1-0-1-1-1-0-1-3-3-5-3-13-13-13-13-13-13-13-13-13-13-13-13-13-13-13-13-15-15-15-15-15-
G|0~------2~------2~------0-------12-12-12-12-12-12-14-14-14-14-14-------------------------------
D|--------2~------3~------0----------------------------------------------------------------------
A|----------------3~------2----------------------------------------------------------------------
E|----------------x-------3----------------------------------------------------------------------

 |------------------------------------------------------------------
 |-1-1-0-1-1-1-0-1-1-1-0-1-3-3-5-3--1-1-0-1-1-1-0-1-1-1-0-1-3-3-5-3-
 |-0~------2~------2~------0--------0~------2~------2~------0-------
 |-2~------2~------3~------0--------2~------2~------3~------0-------
 |-3~------0~------3~------2--------3~------0~------3~------2-------
 |-3~------0~------x-------3--------3~------0~------x-------3-------




Guitar II
	C	Am	    F		G
e|-----------------------------------------------------------------------------
B|---------------------------------------------1-1-0-1-1-1-0-1-1-1-0-1-3-3-5-3-
G|---------------------------------------------0~------2~------2~------0-------
D|---------------------------------------------2~------2~------3~------0-------
A|---------------------------------------------3~------0~------3~------2-------
E|---------------------------------------------3~------0~------x-------3-------


 |-0-0-0-0-0--0-0-0-0-0--0-0-0-0-0--x-x-x-x-x---0-0-0-0-0--0-0-0-0-0--0-0-0-0-0--x-x-x-x-x--
 |-1-1-1-1-1--1-1-1-1-1--1-1-1-1-1--3-3-3-3-3---1-1-1-1-1--1-1-1-1-1--1-1-1-1-1--3-3-3-3-3--
 |-0-0-0-0-0--2-2-2-2-2--2-2-2-2-2--4-4-4-4-4---0-0-0-0-0--2-2-2-2-2--2-2-2-2-2--4-4-4-4-4--
 |-2-2-2-2-2--2-2-2-2-2--3-3-3-3-3--5-5-5-5-5---2-2-2-2-2--2-2-2-2-2--3-3-3-3-3--5-5-5-5-5--
 |-3-3-3-3-3--0-0-0-0-0--3-3-3-3-3--5-5-5-5-5---3-3-3-3-3--0-0-0-0-0--3-3-3-3-3--5-5-5-5-5--
 |-3-3-3-3-3--0-0-0-0-0--0-0-0-0-0--x-x-x-x-x---3-3-3-3-3--0-0-0-0-0--0-0-0-0-0--x-x-x-x-x--

_________________________________________________________________________________


Verse I:

Guitar I
 |------------------------------------------------------------------
 |-1-1-0-1-1-1-0-1-1-1-0-1-3-3-5-3--1-1-0-1-1-1-0-1-1-1-0-1-3-3-5-3-
 |-0~------2~------2~------0--------0~------2~------2~------0-------
 |-2~------2~------3~------0--------2~------2~------3~------0-------
 |-3~------0~------3~------2--------3~------0~------3~------2-------
 |-3~------0~------x-------3--------3~------0~------x-------3-------

 |------------------------------------------------------------------
 |-1-1-0-1-1-1-0-1-1-1-0-1-3-3-5-3--1-1-0-1-1-1-0-1-1-1-0-1-3-3-5-3-
 |-0~------2~------2~------0--------0~------2~------2~------0-------
 |-2~------2~------3~------0--------2~------2~------3~------0-------
 |-3~------0~------3~------2--------3~------0~------3~------2-------
 |-3~------0~------x-------3--------3~------0~------x-------3-------



Guitar II

 |-0-0-0-0-0--0-0-0-0-0--0-0-0-0-0--x-x-x-x-x---0-0-0-0-0--0-0-0-0-0--0-0-0-0-0--x-x-x-x-x--
 |-1-1-1-1-1--1-1-1-1-1--1-1-1-1-1--3-3-3-3-3---1-1-1-1-1--1-1-1-1-1--1-1-1-1-1--3-3-3-3-3--
 |-0-0-0-0-0--2-2-2-2-2--2-2-2-2-2--4-4-4-4-4---0-0-0-0-0--2-2-2-2-2--2-2-2-2-2--4-4-4-4-4--
 |-2-2-2-2-2--2-2-2-2-2--3-3-3-3-3--5-5-5-5-5---2-2-2-2-2--2-2-2-2-2--3-3-3-3-3--5-5-5-5-5--
 |-3-3-3-3-3--0-0-0-0-0--3-3-3-3-3--5-5-5-5-5---3-3-3-3-3--0-0-0-0-0--3-3-3-3-3--5-5-5-5-5--
 |-3-3-3-3-3--0-0-0-0-0--0-0-0-0-0--x-x-x-x-x---3-3-3-3-3--0-0-0-0-0--0-0-0-0-0--x-x-x-x-x--

 |-0-0-0-0-0--0-0-0-0-0--0-0-0-0-0--x-x-x-x-x---0-0-0-0-0--0-0-0-0-0--0-0-0-0-0--x-x-x-x-x--
 |-1-1-1-1-1--1-1-1-1-1--1-1-1-1-1--3-3-3-3-3---1-1-1-1-1--1-1-1-1-1--1-1-1-1-1--3-3-3-3-3--
 |-0-0-0-0-0--2-2-2-2-2--2-2-2-2-2--4-4-4-4-4---0-0-0-0-0--2-2-2-2-2--2-2-2-2-2--4-4-4-4-4--
 |-2-2-2-2-2--2-2-2-2-2--3-3-3-3-3--5-5-5-5-5---2-2-2-2-2--2-2-2-2-2--3-3-3-3-3--5-5-5-5-5--
 |-3-3-3-3-3--0-0-0-0-0--3-3-3-3-3--5-5-5-5-5---3-3-3-3-3--0-0-0-0-0--3-3-3-3-3--5-5-5-5-5--
 |-3-3-3-3-3--0-0-0-0-0--0-0-0-0-0--x-x-x-x-x---3-3-3-3-3--0-0-0-0-0--0-0-0-0-0--x-x-x-x-x--

_________________________________________________________________________________

Refrain:

Guitar I
(not shown actual strumming pattern)
e|-5----7----1------
B|-5----8----1------
G|-5----9----2------
D|-7----9----3------
A|-7----7----3------
E|-5----7----1------


Guitar II
(not shown actual strumming pattern)
e|-0----0----x-----
B|-1----0----1-----
G|-2----0----2-----
D|-2----2----3-----
A|-0----2----3-----
E|-0----0----x-----

_________________________________________________________________________________

(Repeat Verse and Refrain once)


_________________________________________________________________________________

Chorus:

Guitar I
(not shown actual strumming pattern)
e|-3-----3-----5-----1--
B|-5-----3-----5-----1--
G|-5-----4-----5-----2--(4x)
D|-5-----5-----7-----4--
A|-3-----5-----7-----4--
E|-3-----3-----5-----1--


Guitar II
(not shown actual strumming pattern)
e|-0-----3-----0-----0--
B|-1-----3-----1-----1--
G|-0-----0-----2-----2--(4x)
D|-2-----0-----2-----3--
A|-3-----2-----0-----3--
E|-3-----3-----0-----x--


_________________________________________________________________________________

Adlib:

Guitar I
e|----------------------------------------------7-8-8/10-8-7-------------------
B|-5-5-5h6-------------------------------------8-------------8/10-8------------
G|---------7-----------------------------5----7---------------------10-7h9-7-5-
D|-----------7-5---------------------5h7---------------------------------------
A|---------------5-7--7-5-7-7/8-7----------------------------------------------
E|--------------------------------8--------------------------------------------

 |--------------------------------------------------------8-7-8-------------------10------------
 |--------------------------6-6-5-5h6---5h6---6-6-/8-8/10-------8/10-8---8---8-10^^^^10^-8---8~-
 |---5-4-4-5-5/7-4-5-5/7--7-----------7-----7--------------------------9---9---------------9----
 |-7--------------------------------------------------------------------------------------------
 |----------------------------------------------------------------------------------------------
 |----------------------------------------------------------------------------------------------



Guitar II
(not shown actual strumming pattern)
e|-0-----3-----0-----0--|
B|-1-----3-----1-----1--|    
G|-0-----0-----2-----2--|(2x)
D|-2-----0-----2-----3--|
A|-3-----2-----0-----3--|
E|-3-----3-----0-----x--|

e|-0----0----x-----
B|-1----0----1-----
G|-2----0----2-----(2x)
D|-2----2----3-----
A|-0----2----3-----
E|-0----0----x-----

_________________________________________________________________________________


(Repeat Verse and Refrain once)

_________________________________________________________________________________

Bridge:

Guitar I

Guitar I
(not shown actual strumming pattern)
e|-3-----3-----5-----1--
B|-5-----3-----5-----1--
G|-5-----4-----5-----2--(2x)
D|-5-----5-----7-----4--
A|-3-----5-----7-----4--
E|-3-----3-----5-----1--


Guitar II
(not shown actual strumming pattern)
e|-0-----3-----0-----0--
B|-1-----3-----1-----1--
G|-0-----0-----2-----2--(2x)
D|-2-----0-----2-----3--
A|-3-----2-----0-----3--
E|-3-----3-----0-----x--

_________________________________________________________________________________

Chorus:

Guitar II
(not shown actual strumming pattern)
e|-0-----3-----0-----0--|        |-0~----|
B|-1-----3-----1-----1--|        |-1~----|
G|-0-----0-----2-----2--| (8x)   |-0~----|
D|-2-----0-----2-----3--|        |-2~----|
A|-3-----2-----0-----3--|        |-3~----|
E|-3-----3-----0-----x--|        |-3~----| 



_________________________________End_____________________________________________

Tablature player for this song:
 
 
Parokya Ni Edgar - Maniwala Ka Sana Tab :: indexed at Ultimate Guitar.
Maniwala Ka Sana tabs @ 911Tabs

Quick tip, so you can enjoy Maniwala Ka Sana Tab even more:

After the registration (which takes just 10 seconds, remember?) you will be able to use your profile - your very own piece of YourChords.com.

Show us your talent, perform Maniwala Ka Sana Tab!

Here you can post a video or audio performance. Tell me more ...
Where can we find your performance? Tell me more ...
Your comment:
Please, log in to post your performance.