Artists by letter: A B C D E F G H I J K L M N O P Q R S T U V W X Y Z 0-9
 
Goodbye To Romance Tab
GOODBYE TO ROMANCE
As recorded by Ozzy Osbourne
(From the 1981 Album BLIZZARD OF OZZ)


Transcribed by Victor Ochoa

 Words and Music by Ozzy Osbourne, Randy Rhoads, Bob Daisley
Arranged by Ozzy Osbourne, Randy Rhoads, Bob Daisley
 


 Intro
  Q=74
               (D)     (F#m/C)   (Bm)    (A7)
 4/4
  Gtr I
|---------0-||-2h3-2-0-2-0---0-|---0-----------0-||
|-------3---||-------------3---|-3---2---2---3---||
|-----------||-----------------|-------4---0-----||
|-----------||-----------------|-----------------||
|-----------||-----------------|-----------------||
|-----------||-----------------|-----------------||


   Verses 1 & 2
    Dmaj7             F#m    F#m7    G6                      A
||-------5-(5)--^5--|-^-9----12----|-0-----0-(0)-----------|------------------|
||o-7--7--------^7--|-^10----10----|-3---3-------3-0h2h3S5-|-7--5--3--2h3h5---|
||--6-----------^6--|-^11-----9----|-0-0-----------0h2h4S6-|-7--6--4----------|
||--7--7--------^7--|-^11----11----|-0---------------------|------------------|
||o-5-----------^5--|-^-9-----9----|-----------------------|------------------|
||------------------|--------------|-3---------------------|------------------|


  Dmaj7                F#m    F#m7     G6                      A
|------5-(5)-9-5-----|-^-9----^12----|-0-----0-(0)-----------|-------------||
|-7--7-----------7---|-^10----^10----|-3---3-------3-0h2h3S5-|-7--5--3--5--||
|-6----------------6-|-^11----^-9----|-0-0-----------0h2h4S6-|-7--6--4--6--||
|-7--7---------------|-^11----^11----|-0---------------------|-------------||
|-5------------------|-^-9----^-9----|-----------------------|-------------||
|--------------------|---------------|-3---------------------|-------------||


 Chorus
  1.
  D         F#m/C#      Bm        Bm/A
|---------------5h=7--|-7-----7h9-9h10-9-(9)-|
|-7---3h5p3-----7-(7)-|-7-----7---7-------8--|
|-7-2---------2-------|----------------------|
|-0-------------------|---(4)----------------|
|-----------4---------|-2-(4)-----0----------|
|---------------------|----------------------|


  G6                     A7sus4     A7
|--------5--7-(7)--5-7-|-10-(10)-10-9-9-------------|
|-------(3)------------|--8--(8)--8-8-8-------------|
|----7-----------------|--9--(9)--9-9-9-------------|
|---(0)----------------|--7--(7)--7-7-7-------4h7---|
|----------------------|------------------4h5-5h7---|
|-3--------------------|------------------5h7-------|


  D         F#m/C#    Bm       Bm/A
|---------------5-7-|-----9-10-9-----9---------|
|-----3h5p3-----7---|------------------7-------|
|---2---------2-----|---4----------------7-----|
|-4-----------------|---4--------(4)-------(9)-|
|-5---------4-------|-2--------0---------------|
|-------------------|--------------------------|


  G6                     A7sus4    A7
|--------5--7-(7)--5-7-|-10-10-----9-(9)-----0---||
|-------(3)------------|--8----8---8-(8)--/3-----||
|-7--------------------|--9------9-9-(9)---------||
|---(0)----------------|--7--------7-(7)---------||
|----------------------|-------------------------||
|-3--------------------|-------------------------||


 Interlude
  D       F#m/C#    Bm          A7
|-2-5-3p2-2p0---0-|---0--------------------||
|-------------3---|-3---2h3p2---2---3h5S7-o||
|-----------------|-----------4---0--------||
|-----------------|------------------------||
|-----------------|-----------------------o||
|-----------------|------------------------||


 2.
  D         F#m/C#   Bm          Bm/A
|------------------|-------2-----------0-----|
|-7---3h5p3----3p2-|-----3---3-------3---3---|
|-7-2--------------|---4-------4---4-------4-|
|-0----------------|-------------------------|
|-----------4------|-2-----------0-----------|
|------------------|-------------------------|


  G6                     A7sus4  A7               D         F#m/C#
|-----------0-(0)----0-|------------------------|----------------------|
|---------3--------3---|-3-3-(3)-2-(2)----------|-----3h5p3-----2h3p2--|
|-------0--------------|-0-0-(0)-0-(0)----------|-------------2--------|
|-----0----------------|-2-2-(2)-2-(2)------4-7p|=4-2------------------|
|---2------------------|-0-0-(0)-0-(0)--4-5-5-7p|=5---------4----------|
|-3--------------------|----------------5-7-----|----------------------|


  Bm      Bm/A          G6                     A7sus4
|-------0-------0-----|-----------0-(0)----0-|------------------0-||
|-----3-------3---3---|---------3--------3---|-3-----3-2-(2)--3---||
|---4-------4-------4-|-------0--------------|-0---0---0-(0)------||
|---------------------|-----0----------------|---2-----2-(2)------||
|-2-------0-----------|---2------------------|-0-------0-(0)------||
|---------------------|-3--------------------|--------------------||


 Interlude                                        Bridge
  D           F#m/C#    Bm          A7             Em7
|-2-3-2h3p2---2p0---0-|---0---------------5-7-5-||-7-----7-10-(10)---9-10-|
|-----------5-----3---|-3---2h3p2---2-(2)-5-7-5-||-8-----8--8--(8)--10-10-|
|---------------------|-----------4----0--------||-7-----7--7--(7)--------|
|---------------------|-------------------------||-9----------------------|
|---------------------|-------------------------||-7-(7)------------------|
|---------------------|-------------------------||------------------------|


  A              A7       D
|--9-------7-(7)---9-10-|-10h12p10------------------------------------------------|
|-10-----8--------------|-10-------12-(12)-----------------------10h12p10--12--11-|
|--9-(9)----------------|-11---------------9--11--(11)-11h12p11-(11)------(12)----|
|----------------7------|--------------------(12)------12-------------------------|
|-----------------------|---------------------------------------------------------|
|-----------------------|---------------------------------------------------------|
|
| Gtr II
|-----------------------|---------------------------------------------------------|
|-----------------------|-------------------------------------7---7h=8p=7---------|
|-----------------------|--7h=9p=7----------------------------7---7h=9p=7---------|
|-----------------------|--7--------9--(9)--------------7h=9----------------9-----|
|-----------------------|------------------7---9---(9)--------------------------9-|
|-----------------------|---------------------------------------------------------|


|-10-12--------------------------------|
|-10----10-12-(12)-------------10-8-7--|
|-11---------------9--11--(11)---------|
|--------------------(12)-(12)---------|
|--------------------------------------|
|--------------------------------------|
|
|--------------------------------------|
|--------------------------------------|
|--7--9------------------------11-9-7--|
|--7-----7--9--(9)---------------------|
|------------------7---9---(9)---------|
|--------------------------------------|


  Em7                    A7
|--------10-(10)--9-10-|--9-----7-(7)-----9-10-|
|--8---8----------8----|-10---8---------8------|
|-(9)------------------|----9---------9--------|
|----------------------|-----------------------|
|----------------------|-----------------------|
|----------------------|-----------------------|


  D
|-10h12p10------------------------------------------------|
|-10-------12-(12)-----------------------10h12p10--12--11-|
|-11---------------9--11--(11)-11h12p11-(11)------(12)----|
|--------------------(12)------12-------------------------|
|---------------------------------------------------------|
|---------------------------------------------------------|
|
| Gtr II
|---------------------------------------------------------|
|-------------------------------------7---7h=8p=7---------|
|--7h=9p=7----------------------------7---7h=9p=7---------|
|--7--------9--(9)--------------7h=9----------------9-----|
|------------------7---9---(9)--------------------------9-|
|---------------------------------------------------------|


                           Gtr III
                   ~~~~~~~
|----------------------------------||
|---------8-(8)-8S10-(10)----------||
|-7h9p7---9-(9)-9S11-(11)------7h9-||
|-7-----9------------------7h9-----||
|----------------------------------||
|----------------------------------||
|
|----------------------------------||
|----------------------------------||
|----------------------------------||
|----------------------------------||
|----------------------------------||
|----------------------------------||


 Guitar Solo
  D           F#m/C#
  ~~                 ~~~~~~~
|-------------15p14-12-(12)----|
|------------------------------|
|-7S==11---14------------------|
|------------------------------|
|------------------------------|
|------------------------------|
|
| Gtr II
|------------------------------|
|------3h5p=3------------2h3p2-|
|--------------------2---------|
|-4-2--------------------------|
|-5------------4---------------|
|------------------------------|


  Bm                   Bm/A
                                    ~~~~~~~~~
|-14h15p14----14----------------14---------------14-15--|
|----------17----17-15-14-17b19----17---(17)------------|
|-------------------------------------------------------|
|-------------------------------------------------------|
|-------------------------------------------------------|
|-------------------------------------------------------|
|
|--------------2--------------------------0-------------|
|-----------3-----3-------------------3------3----------|
|--------4-----------4--------------4----------4--------|
|-------------------------------------------------------|
|--2-----------------------0----------------------------|
|-------------------------------------------------------|


  G
|17p15p14----14-------------------------------14-15p=14h15p14-17p15h17p15-19p17h19p17-21p19h21p19|
|---------17----17p15p14h15----------14h15h17----------------------------------------------------|
|---------------------------16p14h16-------------------------------------------------------------|
|------------------------------------------------------------------------------------------------|
|------------------------------------------------------------------------------------------------|
|------------------------------------------------------------------------------------------------|
|
|-------------------------------------0----------(0)-----------------------------------0---------|
|-------------------------3------------------------------------------------3---------------------|
|-------------------0----------------------------------------------------------------------------|
|-------------0----------------------------------------------------------------------------------|
|-------2----------------------------------------------------------------------------------------|
|-3----------------------------------------------------------------------------------------------|


  A7sus4                           A7
|-21b23==(21)r(21)p19-21p=19----19-21b22==(21)r(21)-(21)-------|
|----------------------------22--------------------------------|
|--------------------------------------------------------------|
|--------------------------------------------------------------|
|--------------------------------------------------------------|
|--------------------------------------------------------------|
|
|--------------------------------------------------------------|
|--3----------------3-(3)-----2----(2)-------------------------|
|--0----------------0-(0)-----0----(0)-------------------------|
|--2----------------2-(2)-----2----(2)---------------------4-7p|
|--0----------------0-(0)-----0----(0)----------------4--5-5-7p|
|-----------------------------------------------------5--7-----|


  D                 F#m/C#              Bm                             Bm/A
                           ~~~~~~                                              ~~~~~~~~
|--------7------------------------7-9-|-(9)b10r(9)p7----7----------------------------------|
|------7---10-7-8-7------7------------|--------------10---10-8-7---7-----------7---(7)-----|
|-9b11--------------9b11---9-(9)------|--------------------------9---9-7-6-7-9-------------|
|-------------------------------------|----------------------------------------------------|
|-------------------------------------|----------------------------------------------------|
|-------------------------------------|----------------------------------------------------|
|
|-------------------------------------|----------------------------0----------------0------|
|-----------3h5p3-------------2h3p2---|----------------------3-------------------3-----3---|
|--------------------------2----------|---------------4------------------------4---------4-|
|-4----2------------------------------|----------------------------------------------------|
|-5-----------------4-----------------|--2-------------------------------0-----------------|
|-------------------------------------|----------------------------------------------------|


  G
|-9-10-7-9----7------------------------|
|----------10---8-10--7--8---7---------|
|--------------------------9---7-9-6-7-|
|--------------------------------------|
|--------------------------------------|
|--------------------------------------|
|
| Gtr I
|---------------0----(0)-----------0---|
|-----------3------------------3-------|
|--------0-----------------------------|
|------0-------------------------------|
|----2---------------------------------|
|-3------------------------------------|


                                                      Chorus
  A7sus4    A7                                         D          F#m/C#
  ~~~~~~~~                                              ~~
|------------------------------14-15---17p15p14------|----------------------||
|---------------------15h17-19--------------------17-|-19-------------------||
|-9---11----14h=16-18--------------------------------|-19-------------------||
|----------------------------------------------------|----------------------||
|----------------------------------------------------|----------------------||
|----------------------------------------------------|----------------------||
|
|----------------------------------------------------|----------------------||
|-3-3-(3)-2-(2)--------------------------------------|------3h5p3-----2h3p2-||
|-0-0-(0)-0-(0)--------------------------------------|--------------2-------||
|-2-2-(2)-2-(2)----------------------------4----7p===|==4-2-----------------||
|-0-0-(0)-0-(0)-----------------4----5-----5----7p===|==5---------4---------||
|-------------------------------5----7---------------|----------------------||


  Bm          Bm/A          G6                     A7sus4  A7
  Gtr I
|-------2-----------0-----|-----------0-(0)----0-|------------------------|
|-----3---3-------3---3---|---------3--------3---|-3-3-(3)-2-(2)----------|
|---4-------4---4-------4-|-------0--------------|-0-0-(0)-0-(0)----------|
|-------------------------|-----0----------------|-2-2-(2)-2-(2)------4-7-|
|-2-----------0-----------|---2------------------|-0-0-(0)-0-(0)--4-5-5-7-|
|-------------------------|-3--------------------|----------------5-7-----|


  D         F#m/C#      Bm          Bm/A          G6
|---------------------|-------2-----------0-----|-----------0-(0)----0-|
|-----3h5p3-----2h3p2-|-----3---3-------3---3---|---------3--------3---|
|-------------2-------|---4-------4---4-------4-|-------0--------------|
|-4-2-----------------|-------------------------|-----0----------------|
|-5---------4---------|-2-----------0-----------|---2------------------|
|---------------------|-------------------------|-3--------------------|


  A7sus4  A7                  D         F#m/C#      Bm          Bm/A
|--------------------------||---------------------|-------2-----------0-----|
|-3-3-(3)-2-(2)------------||-----3h5p3-----2h3p2-|-----3---3-------3---3---|
|-0-0-(0)-0-(0)------------||-------------2-------|---4-------4---4-------4-|
|-2-2-(2)-2-(2)--------4-7-||-4-2-----------------|-------------------------|
|-0-0-(0)-0-(0)---4--5-5-7-||-5---------4---------|-2-----------0-----------|
|-----------------5--7-----||---------------------|-------------------------|
|
| Gtr III
|--------------------------||---------------------|-------------------------|
|--------------------------||---------------------|-------------------------|
|--------------------------||---------------------|-------------------------|
|--------------------------||---------------------|-------------------------|
|--------------------------||---------------------|-2-----------------------|
|----------------17-------||-5---------4---------|-------------3-----5-----|


  G6                      A7sus4   A7
|-----------0-(0)-----0-|---------------------------------||
|---------3---------3---|-3-3-(3)--2---(2)----------------||
|-------0---------------|-0-0-(0)--0---(0)----------------||
|-----0-----------------|-2-2-(2)--2---(2)-----------4--7-||
|---2-------------------|-0-0-(0)--0---(0)-------4-5-5--7-||
|-3---------------------|------------------------5-7------||
|
|-----------------------|---------------------------------||
|-----------------------|-----------------------10p7------||
|-----------------------|-------------------9p7------9h11-||
|-----------------------|---------------9p7---------------||
|---------------------2-|----------9p7--------------------||
|-3------------3--5-----|-5----7p5------------------------||


  D         F#m/C#      Bm           Bm/A
|---------------------|--------2-----------0--------|
|-----3h5p3-----2h3p2-|------3---3-------3---3------|
|-------------2-------|----4-------4---4--------4---|
|-4-2-----------------|-----------------------------|
|-5---------4---------|--2-----------0--------------|
|---------------------|-----------------------------|
|
|---------------------|-----------------------------|
|---------------------|-----------------------------|
|-7---------9---------|-11-----------9---------11S9p|
|---------------------|-----------------------------|
|---------------------|-----------------------------|
|---------------------|-----------------------------|


  G6
|-----------0-(0)-------0----|
|---------3----------3-------|
|-------0--------------------|
|-----0----------------------|
|---2------------------------|
|-3--------------------------|
|
|-------------10--12---12S14-|
|----------------------------|
|-7------------7---9----9S11-|
|----------------------------|
|----------------------------|
|----------------------------|


  A7sus4   A7
|-----------------------------------------|
|--3-3-(3)-2-(2)--------------------------|
|--0-0-(0)-0-(0)--------------------------|
|--2-2-(2)-2-(2)------------------4---7---|
|--0-0-(0)-0-(0)----------4---5---5---7---|
|-------------------------5---7-----------|
|
|-12--------------------------------------|
|-----------------------------------------|
|--9----------9p7p6-7p6p4-6p4-------------|
|-------------------------------7p5p4-----|
|---------------------------------------7-|
|-----------------------------------------|


  D         F#m/C#      Bm          Bm/A
|---------------------|-------2-----------0------|
|-----3h5p3-----2h3p2-|-----3---3-------3---3----|
|-------------2-------|---4-------4---4-------4--|
|-4-2-----------------|--------------------------|
|-5---------4---------|-2-----------0------------|
|---------------------|--------------------------|
|
|---------------------|--------------------------|
|---------------------|--------------------------|
|---------------------|--------------------------|
|---------------------|--------------------------|
|-5---------4---------|-2------------------------|
|---------------------|-------------5------------|


  G6                     A7sus4  A7
  Gtr I
|-----------0-(0)----0-|------------------------|
|---------3--------3---|-3-3-(3)-2-(2)----------|
|-------0--------------|-0-0-(0)-0-(0)----------|
|-----0----------------|-2-2-(2)-2-(2)------4-7-|
|---2------------------|-0-0-(0)-0-(0)--4-5-5-7-|
|-3--------------------|----------------5-7-----|


  D         F#m/C#      Bm          Bm/A
|---------------------|-------2-----------0------|
|-----3h5p3-----2h3p2-|-----3---3-------3---3----|
|-------------2-------|---4-------4---4-------4--|
|-4-2-----------------|--------------------------|
|-5---------4---------|-2-----------0------------|
|---------------------|--------------------------|


  G6                     A7sus4  A7
|-----------0-(0)----0-|------------------------|
|---------3--------3---|-3-3-(3)-2-(2)----------|
|-------0--------------|-0-0-(0)-0-(0)----------|
|-----0----------------|-2-2-(2)-2-(2)------4-7-|
|---2------------------|-0-0-(0)-0-(0)--4-5-5-7-|
|-3--------------------|----------------5-7-----|


  D         F#m/C#      Bm          Bm/A
|---------------------|-------2-----------0------|
|-----3h5p3-----2h3p2-|-----3---3-------3---3----|
|-------------2-------|---4-------4---4-------4--|
|-4-2-----------------|--------------------------|
|-5---------4---------|-2-----------0------------|
|---------------------|--------------------------|


  G6                     A7sus4  A7
|-----------0-(0)----0-|------------------------|
|---------3--------3---|-3-3-(3)-2-(2)----------|
|-------0--------------|-0-0-(0)-0-(0)----------|
|-----0----------------|-2-2-(2)-2-(2)------4-7-|
|---2------------------|-0-0-(0)-0-(0)--4-5-5-7-|
|-3--------------------|----------------5-7-----|


  D         F#m/C#      Bm          Bm/A
|---------------------|-------2-----------0------|
|-----3h5p3-----2h3p2-|-----3---3-------3---3----|
|-------------2-------|---4-------4---4-------4--|
|-4-2-----------------|--------------------------|
|-5---------4---------|-2-----------0------------|
|---------------------|--------------------------|


  G6                     A7sus4  A7
|-----------0-(0)----0-|------------------------*|
|---------3--------3---|-3-3-(3)-2-(2)----------*|
|-------0--------------|-0-0-(0)-0-(0)----------*|
|-----0----------------|-2-2-(2)-2-(2)------4-7-*|
|---2------------------|-0-0-(0)-0-(0)--4-5-5-7-*|
|-3--------------------|----------------5-7-----*|

Tablature player for this song:
 
 
Ozzy Osbourne - Goodbye To Romance Tab :: indexed at Ultimate Guitar.
Goodbye To Romance tabs @ 911Tabs

About the artist behind Goodbye To Romance Tab:

John Michael "Ozzy" Osbourne (born December 3, 1948) is the lead vocalist of the pioneering English heavy metal band Black Sabbath, a multi-platinum, award winning successful solo artist and the star of the reality show, The Osbournes. Considered by many to be the "Godfather of Heavy Metal," Ozzy has enjoyed a career that has now spanned four decades.

Indexed at Wikipedia.

Show us your talent, perform Goodbye To Romance Tab!

Here you can post a video or audio performance. Tell me more ...
Where can we find your performance? Tell me more ...
Your comment:
Please, log in to post your performance.