Artists by letter: A B C D E F G H I J K L M N O P Q R S T U V W X Y Z 0-9
 
Pasensiya Na Tab
Song: Pasensiya Na
Artist: Cueshe
Ear Tabber: Elvin Hayes V. Gentiles

kindly rate this tab... im xur this is 95% accurate... hope you enjoy.. just comment or 
me if u have some corrections.... tnx... cueshe ROCKS!!

Intro: use a wah-wah pedal....
e|-----------------------------------------|
B|-----------------------------------------|
G|-----------------------------------------|
D|------6-6-6------2-2-2------4-4-4-1-1-1--| 4x
A|----6----------2----------4--------------|
E|--4----------0----------2----------------|

Verse:
e|-----------------------------------------|
B|-----------------------------------------|
G|-----------------------------------------|
D|------6-6-6------2-2-2------4-4-4-1-1-1--| 4x
A|----6----------2----------4--------------|
E|--4----------0----------2----------------|

Chorus:
Guitar 1:
e|------------------------------------------|
B|------------------------------------------|
G|--44444444----------------------11111111--|
D|--44444444--66666666--44444444--22222222--| 2x
A|--22222222--66666666--44444444--22222222--|
E|------------44444444--22222222--00000000--|
Guitar 2:im not sure about this
e|--------2------------4------------2-------------0------|
B|----------2------------4------------2-------------0----|
G|------4-----4------4-----4------2-----2------1------1--|
D|----4------------6------------4------------2-----------| 2x
A|--2------------6------------4------------2-------------|
E|-------------------------------------------------------|

Interlude:
e|-----------------------------------------|
B|-----------------------------------------|
G|-----------------------------------------|
D|------6-6-6------2-2-2------4-4-4-1-1-1--| 2x
A|----6----------2----------4--------------|
E|--4----------0----------2----------------|

Verse:
e|-----------------------------------------|
B|-----------------------------------------|
G|-----------------------------------------|
D|------6-6-6------2-2-2------4-4-4-1-1-1--| 4x
A|----6----------2----------4--------------|
E|--4----------0----------2----------------|

Chorus:
Guitar 1:
e|------------------------------------------|
B|------------------------------------------|
G|--44444444----------------------11111111--|
D|--44444444--66666666--44444444--22222222--| 2x
A|--22222222--66666666--44444444--22222222--|
E|------------44444444--22222222--00000000--|
Guitar 2:im not sure about this
e|--------2------------4------------2-------------0------|
B|----------2------------4------------2-------------0----|
G|------4-----4------4-----4------2-----2------1------1--|
D|----4------------6------------4------------2-----------| 2x
A|--2------------6------------4------------2-------------|
E|-------------------------------------------------------|

Adlib:
Guitar 1:
e|------------------------------------------|
B|------------------------------------------|
G|------------------------------------------|
D|--66666666--88888888--99999999--44444444--|
A|--66666666--88888888--99999999--44444444--|
E|--44444444--66666666--77777777--22222222--|
(continued)
e|--------------------------------------------------|
B|--------------------------------------------------|
G|--------------------------------------------------|
D|--66666666--88888888--99999999--1111111111111111--|
A|--66666666--88888888--99999999--1111111111111111--|
E|--44444444--66666666--77777777---9-9-9-9-9-9-9-9--|
(continued)
e|---------------------------|
B|---------------------------|
G|------------11111111-------|
D|--66666666--22222222--4~~--|
A|--66666666--22222222--4~~--|
E|--44444444--00000000--2~~--|
Guitar 2:
e|------4-------6-------7---7-6-6-7-7-6-4~--|
B|----4---4---6---6---7---7-7-6-6-7-7-6-4~--|
G|--4-------6-------8-----------------------|
D|------------------------------------------| 2x
A|------------------------------------------|
E|------------------------------------------|
(continued)
e|-----------11-12/14~~-12-11---12-11---12-11---12-11---12-11-------------|
B|--/9-9-12~-----------------12------12------12------12------12-----------|
G|------------------------------------------------------------------------|
D|---------------------------------------------------------------6~~////--|
A|------------------------------------------------------------------------|
E|------------------------------------------------------------------------|

Interlude:
e|-----------------------------------------|
B|-----------------------------------------|
G|-----------------------------------------|
D|------6-6-6------2-2-2------4-4-4-1-1-1--| 2x
A|----6----------2----------4--------------|
E|--4----------0----------2----------------|

Chorus:
Guitar 1:
e|------------------------------------------|
B|------------------------------------------|
G|--44444444----------------------11111111--|
D|--44444444--66666666--44444444--22222222--| 4x
A|--22222222--66666666--44444444--22222222--|
E|------------44444444--22222222--00000000--|
Guitar 2:im not sure about this
e|--------2------------4------------2-------------0------|
B|----------2------------4------------2-------------0----|
G|------4-----4------4-----4------2-----2------1------1--|
D|----4------------6------------4------------2-----------| 4x
A|--2------------6------------4------------2-------------|
E|-------------------------------------------------------|

Outro:
e|-----------------------------------------|
B|-----------------------------------------|
G|-----------------------------------------|
D|------6-6-6------2-2-2------4-4-4-1-1-1--| 2x
A|----6----------2----------4--------------|
E|--4----------0----------2----------------|

Tablature player for this song:
 
 
Cueshe - Pasensiya Na Tab :: indexed at Ultimate Guitar.
Pasensiya Na tabs @ 911Tabs

About the artist behind Pasensiya Na Tab:

Cueshé is a 6-piece OPM Pop-Rock band that hails from Cebu, Philippines.

Indexed at Wikipedia.

Show us your talent, perform Pasensiya Na Tab!

Here you can post a video or audio performance. Tell me more ...
Where can we find your performance? Tell me more ...
Your comment:
Please, log in to post your performance.