Artists by letter: A B C D E F G H I J K L M N O P Q R S T U V W X Y Z 0-9

 
Yakap Tab
Song: Yakap
Artist: Callalily
Ear Tabber: Elvin Hayes Gentiles
School: Paranaque National High School (DOST)

Intro:
Guitar 1:
e|------------------------------------------|
B|------------------------------------------|
G|--77777777--44444444----------------------|
D|--77777777--44444444--55555555--77777777--| 2x
A|--55555555--22222222--55555555--77777777--|
E|----------------------33333333--55555555--|

Guitar 2:
e|----------------------------------------------------|
B|--10101010------------------------10101010----------|
G|----------11111111--------11111111--------11111111--|
D|------------------12121212--------------------------| 3x
A|----------------------------------------------------|
E|----------------------------------------------------|
(continued)
e|---------------------------------|
B|---------------------------------|
G|--9999-7777-9999-7777-9999-7777--|
D|---------------------------------|
A|---------------------------------|
E|---------------------------------|

Verse:
Guitar 1:
(Palm Muted)
e|-------------------------|-------------------------|
B|-------------------------|-------------------------|
G|------7---7---7---7---7--|------4---4---4---4---4--|
D|------7---7---7---7---7--|------4---4---4---4---4--|
A|--5-5-5-5-5-5-5-5-5-5-5--|--2-2-2-2-2-2-2-2-2-2-2--|
E|-------------------------|-------------------------|
(continued)
e|-------------------------|-------------------------|
B|-------------------------|-------------------------|
G|-------------------------|-------------------------|
D|------4---4---4---4---4--|------5---5---5---5---5--| 4x
A|------4---4---4---4---4--|------5---5---5---5---5--|
E|--2-2-2-2-2-2-2-2-2-2-2--|--3-3-3-3-3-3-3-3-3-3-3--|

Guitar 2:
e|--2------0--|------------|--------0--|-------------|
B|--3----3----|------------|------3----|-------------|
G|--2--2------|------------|----2------|-------------|
D|--0---------|------------|--0--------|-------------| 4x
A|------------|------------|-----------|-------------|
E|------------|------------|-----------|-------------|

Chorus:
Guitar 1:
e|------------------------------------------|
B|------------------------------------------|
G|--77777777--44444444----------------------|
D|--77777777--44444444--44444444--55555555--| 2x
A|--55555555--22222222--44444444--55555555--|
E|----------------------22222222--33333333--|

Guitar 2:
e|----------------------------------------------------|
B|--10101010------------------------10101010----------|
G|----------11111111--------11111111--------11111111--|
D|------------------12121212--------------------------| 3x
A|----------------------------------------------------|
E|----------------------------------------------------|
(continued)
e|---------------------------------|
B|---------------------------------|
G|--9999-7777-9999-7777-9999-7777--|
D|---------------------------------|
A|---------------------------------|
E|---------------------------------|

Interlude:
Guitar 1:
e|------------------------------------------|
B|------------------------------------------|
G|--77777777--44444444----------------------|
D|--77777777--44444444--55555555--77777777--| 2x
A|--55555555--22222222--55555555--77777777--|
E|----------------------33333333--55555555--|

Guitar 2:
e|----------------------------------------------------|
B|--10101010------------------------10101010----------|
G|----------11111111--------11111111--------11111111--|
D|------------------12121212--------------------------| 3x
A|----------------------------------------------------|
E|----------------------------------------------------|
(continued)
e|---------------------------------|
B|---------------------------------|
G|--9999-7777-9999-7777-9999-7777--|
D|---------------------------------|
A|---------------------------------|
E|---------------------------------|

Verse:
Guitar 1:
(Palm Muted)
e|-------------------------|-------------------------|
B|-------------------------|-------------------------|
G|------7---7---7---7---7--|------4---4---4---4---4--|
D|------7---7---7---7---7--|------4---4---4---4---4--|
A|--5-5-5-5-5-5-5-5-5-5-5--|--2-2-2-2-2-2-2-2-2-2-2--|
E|-------------------------|-------------------------|
(continued)
e|-------------------------|-------------------------|
B|-------------------------|-------------------------|
G|-------------------------|-------------------------|
D|------4---4---4---4---4--|------5---5---5---5---5--| 4x
A|------4---4---4---4---4--|------5---5---5---5---5--|
E|--2-2-2-2-2-2-2-2-2-2-2--|--3-3-3-3-3-3-3-3-3-3-3--|

Guitar 2: 
e|--2------0--|------------|--------0--|-------------|
B|--3----3----|------------|------3----|-------------|
G|--2--2------|------------|----2------|-------------|
D|--0---------|------------|--0--------|-------------| 4x
A|------------|------------|-----------|-------------|
E|------------|------------|-----------|-------------|

Chorus:
Guitar 1:
e|------------------------------------------|
B|------------------------------------------|
G|--77777777--44444444----------------------|
D|--77777777--44444444--44444444--55555555--| 2x
A|--55555555--22222222--44444444--55555555--|
E|----------------------22222222--33333333--|

Guitar 2:
e|----------------------------------------------------|
B|--10101010------------------------10101010----------|
G|----------11111111--------11111111--------11111111--|
D|------------------12121212--------------------------| 3x
A|----------------------------------------------------|
E|----------------------------------------------------|
(continued)
e|---------------------------------|
B|---------------------------------|
G|--9999-7777-9999-7777-9999-7777--|
D|---------------------------------|
A|---------------------------------|
E|---------------------------------|

Adlib:
Guitar 1:
e|------------------------------------------|
B|------------------------------------------|
G|--77777777--44444444----------------------|
D|--77777777--44444444--55555555--77777777--| 2x
A|--55555555--22222222--55555555--77777777--|
E|----------------------33333333--55555555--|

Guitar 2:
e|----------------------------------------------------|
B|--10101010------------------------10101010----------|
G|----------11111111--------11111111--------11111111--|
D|------------------12121212--------------------------| 3x
A|----------------------------------------------------|
E|----------------------------------------------------|
(continued)
e|---------------------------------|
B|---------------------------------|
G|--9999-7777-9999-7777-9999-7777--|
D|---------------------------------|
A|---------------------------------|
E|---------------------------------|

Bridge:
e|---------------------------------------------|     
B|---------------------------------------------|     
G|---------------------------------------------|     
D|--9-----9-----9-----9---7-----7-----7-----7--| 3x  
A|--9-----9-----9-----9---7-----7-----7-----7--|     
E|--7-7-7-7-7-7-7-7-7-7---5-5-5-5-5-5-5-5-5-5--|     
(continued)
e|--------------------|
B|--------------------|
G|--------------------|
D|--5555555555555555--|
A|--5555555555555555--|
E|--3333333333333333--|

Chorus:
Both Guitars:
e|--------------------------------------|
B|----P---------------------------------|
G|--7-A---44444444----------------------|
D|--7-U---44444444--44444444--55555555--|
A|--5-S---22222222--44444444--55555555--|
E|----E-------------22222222--33333333--|
(continued)
e|------------------------------------------|
B|------------------------------------------|
G|--77777777--44444444----------------------|
D|--77777777--44444444--44444444--55555555--| 
A|--55555555--22222222--44444444--55555555--|
E|----------------------22222222--33333333--|

Outro:
Guitar 1:
e|------------------------------------------|
B|------------------------------------------|
G|--77777777--44444444----------------------|
D|--77777777--44444444--44444444--55555555--| 2x
A|--55555555--22222222--44444444--55555555--|
E|----------------------22222222--33333333--|

Guitar 2:
e|----------------------------------------------------|
B|--10101010------------------------10101010----------|
G|----------11111111--------11111111--------11111111--|
D|------------------12121212--------------------------| 3x
A|----------------------------------------------------|
E|----------------------------------------------------|
(continued)
e|---------------------------------|
B|---------------------------------|
G|--9999-7777-9999-7777-9999-7777--|
D|---------------------------------|
A|---------------------------------|
E|---------------------------------|

End:
Guitar 1:  Guitar 2:
e|-----|   |-----|
B|-----|   |-----|
G|--7--|   |--9--|
D|--7--|   |-----|
A|--5--|   |-----|
E|-----|   |-----|

enjoy.....


 
 
Callalily - Yakap Tab :: indexed at Ultimate Guitar.
Yakap tabs @ 911Tabs

About the artist behind Yakap Tab:

Callalily is a Filipino pop-rock band, composed of Kean Cipriano (Vocals), Alden Acosta (Lead Guitar), Tatsi Jamnague (Rhythm Guitar), Aaron Ricafrente (Bass) and Lemuel Belaro (Drums).

Indexed at Wikipedia.

Show us your talent, perform Yakap Tab!

Here you can post a video or audio performance. Tell me more ...
Where can we find your performance? Tell me more ...
Your comment:
Please, log in to post your performance.