Artists by letter: A B C D E F G H I J K L M N O P Q R S T U V W X Y Z 0-9

 
Trapped Inside The Moment Tab
Title: Trapped Inside The Moment
Artist: Callalily
Album: Fisheye
Tabbed by: Mark Jesson Galera

For any comments and Suggestion:

Text Me: 09198408399
Friendster: boybassista@yahoo.com

        This is the new song of Callalily from their new album      
                              "Fisheye"..
                Kung may mali man,..pakicomment kaagad..tnx!


Tuning: Standard

Guitar 1:
e-----------7-------------------------------7---------------------|
b-5-4---5-7---754-------------5-4---5-7----7-5/4---------------|
g-----4-------------4555h7h5--------4----------------4555h7h5---|
D-----------------------------------------------------------------|
A-----------------------------------------------------------------|
E-----------------------------------------------------------------|

Guitar 2:

e-----------------------------------------|
b-----------------------------------------|
g---6666---99999--------------------------|
D---6666---99999------99999-----77777-----|
A---4444---77777------99999-----77777-----|
E---------------------77777-----55555-----|

Verse:

Guitar 2:
Give me your 
e--------------------------------|
b--------------------------------|
g---6666-------------------------|
D---6666--99999--77777----99999--|
A---4444--99999--77777----99999--|
E---------77777--55555----77777--|
   pm    pm     pm         pm
    
Why do we 
e--------------------------------|
b--------------------------------|-
g---6666-------------------------|
D---6666--99999--77777----99999--|
A---4444--99999--77777----99999--|
E---------77777--55555----77777--|-

Drum roll

Don't look  
e--------------------------------|
b--------------------------------|
g---6666-------------------------|
D---6666--99999--77777----99999--|
A---4444--99999--77777----99999--|
E---------77777--55555----77777--|

Chorus:
Cause.
e------------------------------------|
b------------------------------------|
g------99999------------6666---------| 
D------99999----99999---6666--77777--|
A------77777----99999---4444--77777--|
E---------------77777---------55555--|

And I wanna..
e-----------------------------------------|
b-----------------------------------------|
g------99999------------6666--------------| 
D------99999----99999---6666--77777--9999-|
A------77777----99999---4444--77777--9999-|
E---------------77777---------55555--7777-|

Intro:

Guitar 1:
e----------------9-------------------------------------9------------------|
b-7-6---7--9-----7-6----55h7-55h7---7-6---7-9------7--6-----55h-7--55h7---|
g------6----------------6----------------------6-----------------6--------|
D-------------------------------------------------------------------------|
A-------------------------------------------------------------------------|
E-------------------------------------------------------------------------|

e-----------------------------------------|
b-----------------------------------------|
g------99999------------6666--------------| 
D------99999----99999---6666--77777--9999-|
A------77777----99999---4444--77777--9999-|
E---------------77777---------55555--7777-|

Bass only Then

Dreams let us.
e--------------------------------|
b--------------------------------|
g---6666-------------------------|
D---6666--99999--77777----99999--|
A---4444--99999--77777----99999--|
E---------77777--55555----77777--|

Chorus:

And I wanna say 
e------------------------------------|
b------------------------------------|
g------99999------------6666---------| 
D------99999----99999---6666--77777--|
A------77777----99999---4444--77777--|
E---------------77777---------55555--|

And I wanna hear
e------------------------------------|
b------------------------------------|
g------99999------------6666---------| 
D------99999----99999---6666--77777--|
A------77777----99999---4444--77777--|
E---------------77777---------55555--|

Bass and Piano Only. Then

That you breaks..
e--------------------------------|
b--------------------------------|
g---6666-------------------------|
D---6666--99999--77777----99999--|
A---4444--99999--77777----99999--|
E---------77777--55555----77777--|

Never bring it back.
e--------------------------------|
b--------------------------------|
g---6666-------------------------|
D---6666--99999--77777----99999--|
A---4444--99999--77777----99999--|
E---------77777--55555----77777--|

Lyrics:

Give me your hand and all of your attention
I don't wanna lose this feeling
Now I'm trapped inside the moment.
Why do we have to fo back to reality?
Now we say goodbye.

I scream inside my head.
As we try to hld the tears back
While we slowly walk away
Don't look back Just look for tomorrow

And I wanna say that this will last forever. 
And I want to be so, But it's impossible
And I wanna hear that this will last forever not, in our memories
But forever in our hearts. 
Don't you heart the phone and all of my apologies?
Forget about the sunrise creeping up on yesterday
Please don't let us disappear 


 
 
Callalily - Trapped Inside The Moment Tab :: indexed at Ultimate Guitar.
Trapped Inside The Moment tabs @ 911Tabs
People who played Callalily - Trapped Inside The Moment Tab also played these songs by Callalily:
Stars Chords, Magbalik Chords, Gabay Chords, Susundan Chords, Stars Acoustic Chords, Pasan Chords, Nananaginip Chords, Hintay Chords, Pansamantala Chords

About the artist behind Trapped Inside The Moment Tab:

Callalily is a Filipino pop-rock band, composed of Kean Cipriano (Vocals), Alden Acosta (Lead Guitar), Tatsi Jamnague (Rhythm Guitar), Aaron Ricafrente (Bass) and Lemuel Belaro (Drums).

Indexed at Wikipedia.

Show us your talent, perform Trapped Inside The Moment Tab!

Here you can post a video or audio performance. Tell me more ...
Where can we find your performance? Tell me more ...
Your comment:
Please, log in to post your performance.