Artists by letter: A B C D E F G H I J K L M N O P Q R S T U V W X Y Z 0-9
 
Lost Tab
                          Avenged Sevenfold-Lost

Guitar 1
e|--------------------------------------------------------------------------|
B|---------------------------------------12/15b----X4-----------------------|
G|--7---9---10---9---7---9---10---14-14-------------------------------------|
D|--------------------------------------------------------------------------|
A|--------------------------------------------------------------------------|
D|--------------------------------------------------------------------------|

Guitar 2
e|--------------------------------------------------------------------------|
B|---------------------------------------12/15b---X2------------------------|
G|--7---9---10---9---7---9---10---14-14-------------------------------------|
D|--------------------------------------------------------------------------|
A|--------------------------------------------------------------------------|
D|--------------------------------------------------------------------------|

Guitar 2(00:15)
e|--------------------------------17--15------------------------------------|
B|--------------------------------------15b---------------------------------|
G|--7---9---10---9---7---9---10---------------------------------------------|
D|--------------------------------------------------------------------------|
A|--------------------------------------------------------------------------|
D|--------------------------------------------------------------------------|

Guitar 2(00:20)
e|-------------------------------17-15--------------------------------------|
B|-------------------------------------15/18b-------------------------------|
G|--7---9---10---9---7---9---10---------------------------------------------|
D|--------------------------------------------------------------------------|
A|--------------------------------------------------------------------------|
D|--------------------------------------------------------------------------|


E|--12-10-6--10-6---6-------------------------------------------------------|
B|----------------8---8--6--------------------------------------------------|
G|-------------------------5------------------------------------------------|
D|---------------------------7/12-------------------------------------------|
A|--------------------------------------------------------------------------|
D|--------------------------------------------------------------------------|


E|-12-10----10---------------------------------------------------------------|
B|-------11---11-10---11-10--------------------------------------------------|
G|--------------------------10-----------------------------------------------|
D|----------------------------10-10/12---------------------------------------|
A|---------------------------------------------------------------------------|
D|---------------------------------------------------------------------------|

/=slide up
b=bend

Ok so this is my first tab ever so dont hate on me if its wrong
but if u like it please comment and rate it..thankz!
A7X 4 Ever!!

Tablature player for this song:
 
 
Avenged Sevenfold - Lost Tab :: indexed at Ultimate Guitar.
Lost tabs @ 911Tabs

About the artist behind Lost Tab:

Avenged Sevenfold is an American rock band from Huntington Beach, California.

Indexed at Wikipedia.

Show us your talent, perform Lost Tab!

Here you can post a video or audio performance. Tell me more ...
Where can we find your performance? Tell me more ...
Your comment:
Please, log in to post your performance.