Artists by letter: A B C D E F G H I J K L M N O P Q R S T U V W X Y Z 0-9
 
Its Not My Time Tab
Guitar 1 (Clean)
Guitar 2 (Distortion)
Guitar 3 (Distrortion)

ARTIST: 3 Doors Down
SONG: It's Not My Time
Another sensational song from a brilliant rock band.
INTRO:
Guitar 1. 
Am F
E|----------------------------------------------------------|
B|--0h1--------0-----0-----------------------------0--------|
G|------2--------0-----0-----0h2---------2(0)--------0------|
D|--------2--------2-----2--------3-----------3--------3----|
A|----------0------------------------3----------3-----------|
E|--------------------------------------1-------------------|

Am F 
E|--------------------------------------------|
B|--0h1--------0-----0------------------------|
G|------2--------0-----0-----0h2---------2(0)-|
D|--------2--------2-----2--------3-----------|
A|----------0------------------------3--------|
E|--------------------------------------1-----|

Guitar 2 
E|-------------------------------------------------------------------------|
B|-------------------------------------------------------------------------|
G|-----------------------5-x-5-5-5-----------------------------------------|
D|--7-5-3-3---3--x--3----5-x-5-5-5----5-x-5-5-5-5-------------7--5--3-3----|
A|--7-5-3-3---3--x--3----3-x-3-3-3----5-x-5-5-5-5-------------7--5--3-3----|
E|--5-3-1-1---1--x--1-----------------3-x 3-3-3-3------------5--3--1-1----|

Guitar 3
E|-------------------------------------------------------------------------|
B|-------------------------------------------------------------------------|
G|-----------------------------9-9-9-9-10---------------------9------------|
D|-------------10-10-10-10-10------------12-12-12-10-10-12-12---12-10-10---|
A|-------------------------------------------------------------------------|
E|-------------------------------------------------------------------------|

Guitar 2
E|------------------------------------------------------------------|
B|------------------------------------------------------------------|
G|------------------5-5-5-------------------------------------------|
D|---3-----3--------5-5-5--------5-5-5-5-------------7--5--3-3------|
A|---3-----3--------3-3-3--------5-5-5-5-------------7--5--3-3------|
E|---1-----1---------------------3-3-3-3------------5--3--1-1------|

Guitar 3
E|------------------------------------------------------------------|
B|------------------------------------------------------------------|
G|----------------9-9-9-9-10----------------------9-----------------|
D|-10-10-10-10-10------------12-12-12-10-10-12-12---12-10-10--------|
A|-----------------------------------------------------------10/12~-|
E|------------------------------------------------------------------|

VERSE 1
Guitar 1
E|-----------------------------------------------------------------|
B|-----------------0h1------1p0-------------0------1-----1p0-------|
G|--------0h2----------2--------2---------2---2------2-------2-----|
D|------3-----3----------3--------3-----2-------2------2-------2---|
A|----3---------3---------------------0----------------------------| 
E|--1--------------------------------------------------------------|

Guitar 2
E|-----------------------------------------------------------------|
B|-----------------------------------------------------------------|
G|--------------------------------2--------------------------------|
D|-3------------------------------2--------------------------------|
A|-3------------------------------0--------------------------------|
E|-1---------------------------------------------------------------|
   Let ring                       Let ring
Guitar 1 
E|--------------------------------------------------------1p0-------|
B|-----------------0h1------1p0-------------0------1----------3-----|
G|--------0h2----------2--------2---------2---2------2-----------2--|
D|------3-----3----------3--------3-----2-------2------2------------|
A|----3---------3---------------------0-----------------------------|
E|--1---------------------------------------------------------------|

Guitar 2
E|------------------------------------------------------------------|
B|------------------------------------------------------------------|
G|------------------------------------2-----------------------------|
D|-3----------------------------------2-----------------------------|
A|-3----------------------------------0-----------------------------|
E|-1----------------------------------------------------------------|
   Let ring                          Let ring
Guitar 1
E|-----------------------------------------------------------------|
B|-----------------0h1------1p0-------------0------1-----1p0-------|
G|--------0h2----------2--------2---------2---2------2-------2-----|
D|------3-----3----------3--------3-----2-------2------2-------2---|
A|----3---------3---------------------0----------------------------| 
E|--1--------------------------------------------------------------|

Guitar 2 (Palm mute)
E|-----------------------------------------------------------------|
B|-----------------------------------------------------------------|
G|--------------------------------2--2--2--2--2--2--2--2--2--2--2--|
D|-3--3--3--3--3--3--3--3--3--3---2--2--2--2--2--2--2--2--2--2--2--|
A|-3--3-3--3--3--3--3--3--3--3---0--0--0--0--0--0--0--0--0--0--0--|
E|-1--1--1--1--1--1--1--1--1--1------------------------------------|

Guitar 1
E|--------------------------------------------------------1p0-------|
B|-----------------0h1------1p0-------------0------1----------3-----|
G|--------0h2----------2--------2---------2---2------2-----------2--|
D|------3-----3----------3--------3-----2-------2------2------------|
A|----3---------3---------------------0-----------------------------|
E|--1---------------------------------------------------------------|

Guitar 2 (Palm mute)
E|------------------------------------------------------------------|
B|------------------------------------------------------------------|
G|--------------------------------2--2--2--2--2--2--2--2--2--2--2---|
D|-3--3--3--3--3--3--3--3--3--3---2--2--2--2--2--2--2--2--2--2--2---|
A|-3--3-3--3--3--3--3--3--3--3---0--0--0--0--0--0--0--0--0--0--0---|
E|-1--1--1--1--1--1--1--1--1--1-------------------------------------|

CHORUS x 2
Guitar 2
E|------------------------------------------------|
B|------------------------------------------------|
G|-----------------------5-x-5-5-5----------------|
D|--7-5-3-3---3--x--3----5-x-5-5-5----5-x-5-5-5-5-|
A|--7-5-3-3---3--x--3----3-x-3-3-3----5-x-5-5-5-5-|
E|--5-3-1-1---1--x--1-----------------3-x 3-3-3-3|

POST VERSE 
Guitar 1
E|-----------------------------------------------------------------|
B|-----------------0h1------1p0-------------0------1-----1p0-------|
G|--------0h2----------2--------2---------2---2------2-------2-----|
D|------3-----3----------3--------3-----2-------2------2-------2---|
A|----3---------3---------------------0----------------------------| 
E|--1--------------------------------------------------------------|

Guitar 2
E|-----12--12---12------12-----------------------------------------|
B|---15--15---13--13-13----12--12--10-10-9-9-9/10-10-10-108-------|
G|-------------------------------------------------------------9---|
D|-----------------------------------------------------------------|
A|-----------------------------------------------------------------|
E|-----------------------------------------------------------------|

VERSE 2:

Guitar 1
E|-----------------------------------------------------------------|
B|-----------------0h1------1p0-------------0------1-----1p0-------|
G|--------0h2----------2--------2---------2---2------2-------2-----|
D|------3-----3----------3--------3-----2-------2------2-------2---|
A|----3---------3---------------------0----------------------------| 
E|--1--------------------------------------------------------------|

Guitar 2
E|-----------------------------------------------------------------|
B|-----------------------------------------------------------------|
G|--------------------------------2--------------------------------|
D|-3------------------------------2--------------------------------|
A|-3------------------------------0--------------------------------|
E|-1---------------------------------------------------------------|
   Let ring                        Let ring
Guitar 1
E|--------------------------------------------------------1p0-------|
B|-----------------0h1------1p0-------------0------1----------3-----|
G|--------0h2----------2--------2---------2---2------2-----------2--|
D|------3-----3----------3--------3-----2-------2------2------------|
A|----3---------3---------------------0-----------------------------|
E|--1---------------------------------------------------------------|

Guitar 2
E|------------------------------------------------------------------|
B|------------------------------------------------------------------|
G|-----------------------------------2------------------------------|
D|-3---------------------------------2------------------------------|
A|-3---------------------------------0------------------------------|
E|-1----------------------------------------------------------------|
  Let ring                            Let ring

Guitar 1
E|-----------------------------------------------------------------|
B|-----------------0h1------1p0-------------0------1-----1p0-------|
G|--------0h2----------2--------2---------2---2------2-------2-----|
D|------3-----3----------3--------3-----2-------2------2-------2---|
A|----3---------3---------------------0----------------------------| 
E|--1--------------------------------------------------------------|


Guitar 2 (Palm mute)
E|------------------------------------------------------------------|
B|------------------------------------------------------------------|
G|--------------------------------2--2--2--2--2--2--2--2--2--2--2---|
D|-3--3--3--3--3--3--3--3--3--3---2--2--2--2--2--2--2--2--2--2--2---|
A|-3--3-3--3--3--3--3--3--3--3---0--0--0--0--0--0--0--0--0--0--0---|
E|-1--1--1--1--1--1--1--1--1--1-------------------------------------|

Guitar 1
E|--------------------------------------------------------1p0-------|
B|-----------------0h1------1p0-------------0------1----------3-----|
G|--------0h2----------2--------2---------2---2------2-----------2--|
D|------3-----3----------3--------3-----2-------2------2------------|
A|----3---------3---------------------0-----------------------------|
E|--1---------------------------------------------------------------|


Guitar 2 (Palm mute)
E|------------------------------------------------------------------|
B|------------------------------------------------------------------|
G|--------------------------------2--2--2--2--2--2--2--2--2--2--2---|
D|-3--3--3--3--3--3--3--3--3--3---2--2--2--2--2--2--2--2--2--2--2---|
A|-3--3-3--3--3--3--3--3--3--3---0--0--0--0--0--0--0--0--0--0--0---|
E|-1--1--1--1--1--1--1--1--1--1-------------------------------------|


CHORUS x 4
Guitar 2
E|------------------------------------------------|
B|------------------------------------------------|
G|-----------------------5-x-5-5-5----------------|
D|--7-5-3-3---3--x--3----5-x-5-5-5----5-x-5-5-5-5-|
A|--7-5-3-3---3--x--3----3-x-3-3-3----5-x-5-5-5-5-|
E|--5-3-1-1---1--x--1-----------------3-x 3-3-3-3|



SOLO x 4
Guitar 2 (with wah) 
E|------------------------------------------------------------------------------|
B|------------------------------------------------------------------------------|
G|------------------------------------------------------------------------------|
D|10-10-10-10-10-9-9-9-9-9-12-12-12-10-10-10-10-10-10-10-9-9-9-9-9-12^-12^-12^--|
A|------------------------------------------------------------------------------|
E|------------------------------------------------------------------------------|

Guitar 3 x 4
E|------------------------------------|
B|------------------------------------|
G|----------5-5-5-5-------------------|
D|-3-3-3-3--5-5-5-5---7-7-7-7-7-7-7-7-|
A|-3-3-3-3--3-3-3-3---7-7-7-7-7-7-7-7-|
E|-1-1-1-1------------5-5-5-5-5-5-5-5-|
                         
  
POST SOLO:
Guitar 1

E|----------------------------------------------------------|
B|--0h1--------0-----0-----------------------------0--------|
G|------2--------0-----0-----0h2---------2(0)--------0------|
D|--------2--------2-----2--------3-----------3--------3----|
A|----------0------------------------3----------3-----------|
E|--------------------------------------1-------------------|

 
E|--------------------------------------------|
B|--0h1--------0-----0------------------------|
G|------2--------0-----0-----0h2---------2(0)-|
D|--------2--------2-----2--------3-----------|
A|----------0------------------------3--------|
E|--------------------------------------1-----|

CHORUS x 4
Guitar 2
E|------------------------------------------------|
B|------------------------------------------------|
G|-----------------------5-x-5-5-5----------------|
D|--7-5-3-3---3--x--3----5-x-5-5-5----5-x-5-5-5-5-|
A|--7-5-3-3---3--x--3----3-x-3-3-3----5-x-5-5-5-5-|
E|--5-3-1-1---1--x--1-----------------3-x 3-3-3-3|

OUTRO:
Guitar 1
E|----------------------------------------------------------|
B|--0h1--------0-----0-----------------------------0--------|
G|------2--------0-----0-----0h2---------2(0)--------0------|
D|--------2--------2-----2--------3-----------3--------3----|
A|----------0------------------------3----------3-----------|
E|--------------------------------------1-------------------|

Guitar 2 x 4
E|-----------------------------------------|
B|-----------------------------------------|
G|-------------5--5--5--5------------------|
D|-3--3--3--3--5--5--5--5--7-7-7-7-7-7-7-7-|
A|-3--3-3--3--3--3--3--3--7-7-7-7-7-7-7-7-|
E|-1--1--1--1--------------5-5-5-5-5-5-5-5-|

Guitar 1
E|--------------------------------------------|
B|--0h1--------0-----0------------------------|
G|------2--------0-----0-----0h2---------2(0)-|
D|--------2--------2-----2--------3-----------|
A|----------0------------------------3--------|
E|--------------------------------------1-----|


Guitar 2 
E|------------------------------------------------------------------|
B|------------------------------------------------------------------|
G|--------------------------------2---------------------------------|
D|-3------------------------------2---------------------------------|
A|-3-----------------------------0---------------------------------|
E|-1----------------------------------------------------------------|
  Let ring                        Let ring                     
                                               
Guitar 2 
E|------------------------------------------------------------------|
B|------------------------------------------------------------------|
G|--------------------------------2-----------------------------2---|
D|-3------------------------------2-----------------------------2---|
A|-3-----------------------------0-----------------------------0---|
E|-1----------------------------------------------------------------|
  Let ring                        Let ring              Let ring END 



Tablature player for this song:
 
 
3 Doors Down - Its Not My Time Tab :: indexed at Ultimate Guitar.
Its Not My Time tabs @ 911Tabs

About the artist behind Its Not My Time Tab:

3 Doors Down is an American rock band formed in Escatawpa, Mississippi in the year 1994 by Brad Arnold (vocals and drums), Matt Roberts (guitar) and Todd Harrell (bass).[1] The band signed to Universal Records after the success of their song "Kryptonite". The band has since sold well over 15 million albums Worldwide since their debut album, The Better Life, was released in 2000. They also perform more than 300 concerts a year and have performed with other well-known artists such as Lynyrd Skynyrd, Staind, Nickelback, Alter Bridge, Breaking Benjamin, Seether, Shinedown and Daughtry.

Indexed at Wikipedia.

Show us your talent, perform Its Not My Time Tab!

Here you can post a video or audio performance. Tell me more ...
Where can we find your performance? Tell me more ...
Your comment:
Please, log in to post your performance.