Artists by letter: A B C D E F G H I J K L M N O P Q R S T U V W X Y Z 0-9
 
3000 Miles Tab
-------------------------------------------------------------------------------
			     3000 Miles - Valencia
-------------------------------------------------------------------------------
Tabbed by:Tristan L.
Email: tlozano_90@yahoo.com

Tuning:Standard

Intro
Guitar 1        Break (0:02)
e|--------------------------|
B|--------------------------|
G|-5555555544444------------|
D|-xxxxxxxxxxxxx------------|
A|-3333333322222------------|
E|--------------------------|

Guitar 2        Break (0:02)
e|--------------------------|
B|--------------------------|
G|--------------------------|
D|-3333333355555------------|
A|-3333333355555------------|
E|-1111111133333------------|
Guitar 1
   1 2 3 4 1              *
e|----------------------------|
B|----------------------------| x2
G|-5555554555--5555554555-----|x4
D|-xxxxxxxxxx--xxxxxxxxxx-xx
A|-3333332333--3333332333----|x2
E|---------------------------|

Guitar 2
e|----------------------------                        --|
B|---------------------------- x2 last time end with  --|
G|55----4555-----55----455----                        --|
D|55----4555--3--55----4553--5                        3-|
A|33----2333--3--33----2333--5                        3-|
E|------------1-----------1--3                        1-|


VERSE (0:20)

Guitar 1              >>1
e|------------------------------|
B|------0-----------------------|
G|----5-------5----4----5-5-5-5-|
D|-----------5----5-----x-x-x-x-|
A|-3--------3-----------3-3-3-3-|
E|---------------3--------------|

Guitar 2 matchup last notesis all i know.. i cant hear this part well enough.
e|-----------------------|
B|-----------------------|
G|-----------------9---5-|
D|---------------------x-|
A|---------------------3-|
E|-----------------------|

Guitar 1                                                        Break (0:38)
e|---------------------------------------------------------------|
B|---------------------------------------------------------------|
G|-5555555579999999--------44445555------------------------------|
D|-555555557999999977777777xxxxxxxx55555555555555553333333355555-
A|-3333333357777777777777772222333355555555555555553333333355555-
E|-----------------55555555--------33333333333333331111111133333-

Guitar 2
e|---------------------------------------------------------------|
B|---------------------------------------------------------------|
G|-5555555579999999--------44445555----------------5555555544444-|
D|-555555557999999977777777xxxxxxxx5555555555555555xxxxxxxxxxxxx-
A|-3333333357777777777777772222333355555555555555553333333322222-
E|-----------------55555555--------3333333333333333--------------

CHORUS

Guitar 1 figure out beat
e|------------------------------------------------------------|
B|------------------------------------------------------------| x2
G|-7/9-7/9----444-4445--4/5---------55555555------------------|
D|-x-x-x-x----xxx-xxxx--x-x-33333333555555555555555577777777--|
A|-5/7-5/7----222-2223--2/3-33333333333333335555555577777777--|
E|--------------------------11111111--------3333333355555555--|

Guitar 2
e|---------------------------------|
B|---------------------------------| x4
G|---------55555555----------------|
D|-33333333555555555555555577777777
A|-33333333555555555555555577777777
E|-11111111--------3333333355555555-|
------------------------------------|
INTRO again
---------
Then
 -Verse
 -Chorus

Bridge/Solo (1:48)
Guitar 1
e|----------------------------------------|
B|----------------------------------------|
G|----rest-twice-through----75-----975-|
D|-----------------------75--------------|
A|----------------------------------------|
E|----------------------------------------|
Guitar 2        x3   end with
e|---------------------------|
B|---------------------------|
G|-5-7-7-5-7-7-x3---x3x5x7--|
D|-5-7-7-5-7-7-x3---x3x5x7--|
A|-3-5-5-3-5-5-x1---x1x3x5--|
E|---------------------------|

THEN palm mute through verse until
(2:09)
Guitar 1 cant tell wat these chords are..but it ends on this one
gimme a break..itd take a while...and its late..
e|--
B|--
G|-8~   *weird suspension.. i dont know it...
D|-8~
A|-6~
E|--
then
CHORUS again
outro is just a little varied from chorus too...have fun.. :).
| /  slide up
|   slide down
| h  hammer-on
| p  pull-off
| ~  vibrato
| +  harmonic
| x  Mute note
===============================================================================

Tablature player for this song:
 
 
Valencia - 3000 Miles Tab :: indexed at Ultimate Guitar.
3000 Miles tabs @ 911Tabs

Quick tip, so you can enjoy 3000 Miles Tab even more:

After the registration (which takes just 10 seconds, remember?) you will be able to use your profile - your very own piece of YourChords.com.

Show us your talent, perform 3000 Miles Tab!

Here you can post a video or audio performance. Tell me more ...
Where can we find your performance? Tell me more ...
Your comment:
Please, log in to post your performance.