Artists by letter: A B C D E F G H I J K L M N O P Q R S T U V W X Y Z 0-9

 
The Great Beyond
This tab was transcribed entirely by ear by myself, using what few footage exists of them performing this 
song as a guide. So not everything may be 100% accurate. However, I think this comes pretty close. 
The studio recording is in Half Step Down tuning, although they perform this song in Whole Step Down tuning 
(DGCFAD), live.

[Intro]
eb|---------------------------------------------------------------|
Bb|---------------------------------------------------------------|
Gb|---------------------------------------------------------------|
Db|--2------------------------------5--9-----9/7/9---9---7/9--7/9-|  x2
Ab|--2--3-2--5--5--5/7--5/7---------7----10--7/5/7---7---5/7--5/7-|
Eb|--0-------3--0--3/5--3/5--5-5-7--8-----------------------------| 

eb|---------------------------------|
Bb|---------------------------------|
Gb|---------------------------------|
Db|--5--9-----9/7/9---9---7/9-------|
Ab|--7----10--7/5/7---7---5/7---7-9-|
Eb|--8------------------------------| 

[Verse] 
eb|--------------------------------------------------------------------------------------------|
Bb|------------------------7-------------------------------------------------------------------|
Gb|--------7---------------7----------4--4---5p4-5p4-----------5--X------4-------2--2----2-2-4-|
Db|--------9----9----------7---0------5--5-----------5---------5--X------5--5----2--2----2-2-4-| x2
Ab|--10-10-10---10---5--5--5-------7--7--7-------------7---3-3-3--X--2-2-2-------0--0----0-0-2-|
Eb|--------------------------------------------------------------------------------------------| 

[Chorus]
eb|--3-3-3-3-3--3-3-3-3-3-3--3-3-3-3-3-3--2-2h3p2-2p0--3-3-3-3-3--3-3-3-3-3-3--|
Bb|--1-1-1-1-1--1-1-1-1-1-1--3-3-3-3-3-3--3-3-3-3-3-3--1-1-1-1-1--1-1-1-1-1-1--|
Gb|--0-0-0-0-0--0-0-0-0-0-0--0-0-0-0-0-0--2-2-2-2-2-2--0-0-0-0-0--0-0-0-0-0-0--|
Db|--2-2-0h2-2--2-2-2-0h2-2--0-0-0-0-0-0---------------2-2-0h2-2--2-2-2-0h2-2--|
Ab|--3-3-3-3-3--3-3-3-3-3-3--2-2-0h2-2-2---------------3-3-3-3-3--3-3-3-3-3-3--|
Eb|--------------------------3-3-3-3-3-3---------------------------------------| 

[1st tail]
eb|--3-3-3-3----------------|
Bb|--3-3-3-3----------------|
Gb|--0-0-0-0--7--5--4--<2b>-|
Db|--0-0-0-0----------------| 
Ab|--2-2-2-2----------------|
Eb|--3-3-3-3----------------|

[Chorus]
eb|--3-3-3-3-3--3-3-3-3-3-3--3-3-3-3-3-3--2-2-3-2-2-0--3-3-3-3-3--3-3-3-3-3-3--|
Bb|--1-1-1-1-1--1-1-1-1-1-1--3-3-3-3-3-3--3-3-3-3-3-3--1-1-1-1-1--1-1-1-1-1-1--|
Gb|--0-0-0-0-0--0-0-0-0-0-0--0-0-0-0-0-0--2-2-2-2-2-2--0-0-0-0-0--0-0-0-0-0-0--|
Db|--2-2-0h2-2--2-2-2-0h2-2--0-0-0-0-0-0---------------2-2-0h2-2--2-2-2-0h2-2--|
Ab|--3-3-3-3-3--3-3-3-3-3-3--2-2-0h2-2-2---------------3-3-3-3-3--3-3-3-3-3-3--|
Eb|--------------------------3-3-3-3-3-3---------------------------------------| 

[2nd tail]
Eb|-----------------|
Bb|------------5-3--|
Gb|------4-4-2------|
Db|----4------------|
Ab|--2--------------|
Eb|-----------------|

[Intro]
eb|---------------------------------------------------------------|
Bb|---------------------------------------------------------------|
Gb|---------------------------------------------------------------|
Db|--2------------------------------5--9-----9/7/9---9---7/9--7/9-|  x2
Ab|--2--3-2--5--5--5/7--5/7---------7----10--7/5/7---7---5/7--5/7-|
Eb|--0-------3--0--3/5--3/5--5-5-7--8-----------------------------| 

eb|---------------------------------|
Bb|---------------------------------|
Gb|---------------------------------|
Db|--5--9-----9/7/9---9---7/9-------|
Ab|--7----10--7/5/7---7---5/7---7-9-|
Eb|--8------------------------------| 

[Verse] 
eb|--------------------------------------------------------------------------------------------|
Bb|------------------------7-------------------------------------------------------------------|
Gb|--------7---------------7----------4--4---5p4-5p4-----------5--X------4-------2--2----2-2-4-|
Db|--------9----9----------7---0------5--5-----------5---------5--X------5--5----2--2----2-2-4-| x2
Ab|--10-10-10---10---5--5--5-------7--7--7-------------7---3-3-3--X--2-2-2-------0--0----0-0-2-|
Eb|--------------------------------------------------------------------------------------------| 

[Chorus]
eb|--3-3-3-3-3--3-3-3-3-3-3--3-3-3-3-3-3--2-2h3p2-2p0--3-3-3-3-3--3-3-3-3-3-3--|
Bb|--1-1-1-1-1--1-1-1-1-1-1--3-3-3-3-3-3--3-3-3-3-3-3--1-1-1-1-1--1-1-1-1-1-1--|
Gb|--0-0-0-0-0--0-0-0-0-0-0--0-0-0-0-0-0--2-2-2-2-2-2--0-0-0-0-0--0-0-0-0-0-0--|
Db|--2-2-0h2-2--2-2-2-0h2-2--0-0-0-0-0-0---------------2-2-0h2-2--2-2-2-0h2-2--|
Ab|--3-3-3-3-3--3-3-3-3-3-3--2-2-0h2-2-2---------------3-3-3-3-3--3-3-3-3-3-3--|
Eb|--------------------------3-3-3-3-3-3---------------------------------------| 

[1st tail]
eb|--3-3-3-3----------------|
Bb|--3-3-3-3----------------|
Gb|--0-0-0-0--7--5--4--<2b>-|
Db|--0-0-0-0----------------| 
Ab|--2-2-2-2----------------|
Eb|--3-3-3-3----------------|

[Chorus]
eb|--3-3-3-3-3--3-3-3-3-3-3--3-3-3-3-3-3--2-2-3-2-2-0--3-3-3-3-3--3-3-3-3-3-3--|
Bb|--1-1-1-1-1--1-1-1-1-1-1--3-3-3-3-3-3--3-3-3-3-3-3--1-1-1-1-1--1-1-1-1-1-1--|
Gb|--0-0-0-0-0--0-0-0-0-0-0--0-0-0-0-0-0--2-2-2-2-2-2--0-0-0-0-0--0-0-0-0-0-0--|
Db|--2-2-0h2-2--2-2-2-0h2-2--0-0-0-0-0-0---------------2-2-0h2-2--2-2-2-0h2-2--|
Ab|--3-3-3-3-3--3-3-3-3-3-3--2-2-0h2-2-2---------------3-3-3-3-3--3-3-3-3-3-3--|
Eb|--------------------------3-3-3-3-3-3---------------------------------------| 

[3nd tail]
Eb|----------------------------------------------|
Bb|----------------------------------------5-3-5-|
Gb|------4-4-4-2------4-4-4-2------4--4-2--------|
Db|----4------------4------------4---------------|
Ab|--2------------2------------2-----------------|
Eb|----------------------------------------------|

[Bass Solo]

[Solo]
eb|----------------------------------------------------------------------10--------|
Bb|--3/5--5-5-5-3-0---5/7--7-7-7-8-8---10/12--12-12-12-10-12--/17-15-12-----12-10\-|
Gb|--------------------------------------------------------------------------------|
Db|--------------------------------------------------------------------------------| x2
Ab|--------------------------------------------------------------------------------|
Eb|--------------------------------------------------------------------------------|
  
     E5             B5             G5                       B5          F#5  
eb|--3--3-3-3-2-0---5-5-5-5-7-7----10/12--12-12-12-10-12---/15-14-12---/14-12-10\----|
Bb|--5--5-5-5-3-0---7-7-7-7-8-8----10/12--12-12-12-10-12-----------------------------|
Gb|-----------------x-x-x-x-x-x------------------------------------------------------| 
Db|-----------------7-7-7-7-9-9------------------------------------------------------| x2
Ab|----------------------------------------------------------------------------------|
Eb|----------------------------------------------------------------------------------|

[Bridge] (Highest harmonic lead in parenthesis)
eb|---------------------(15)-(14)-(12)---(14)-(12)------------------------------------------------|
Bb|------------------------------------------------(15)-------------------------------------------|
Gb|-----------5--4--2~---------------------------------------------9--4--5~-----------------------|
Db|--2~-------5--4--2~------------------------------------2~-------9--4--5~-----------------------|
Ab|--2~--4-5--3--2--0~--/7----5-----------/5--------------2~--4-5--7--2--3~--3-3-3-2-0---0-2-0----|
Eb|--0~--2-3-----------------------7-----------7----5-----0~--2-3----------------------3-------3--| 
         Pm.|                                                 Pm.|         Pm....................|

eb|---------------------(15)-(14)-(12)---(14)-(12)-----------------------|
Bb|------------------------------------------------(15)------------------|
Gb|-----------5--4--2~---------------------------------------------9--4--|
Db|--2~-------5--4--2~------------------------------------2~-------9--4--|
Ab|--2~--4-5--3--2--0~--/7----5-----------/5--------------2~--4-5--7--2--|
Eb|--0~--2-3-----------------------7-----------7----5-----0~--2-3--------|
         Pm.|                                                 Pm.|       

eb|---------------------------------|
Bb|---------------------------------|
Gb|---------------------------------|
Db|--5--9-----9/7/9---9---7/9--7/9--| x3
Ab|--7----10--7/5/7---7---5/7--5/7--|
Eb|--8------------------------------|

eb|---------------------------------|
Bb|---------------------------------|
Gb|---------------------------------|
Db|--5--9-----9/7/9---9---7/9-------|
Ab|--7----10--7/5/7---7---5/7--7-9--|
Eb|--8------------------------------|

eb|-------------------------------------------------------------------------------0~--|
Bb|------------------------7------------------------------------------------------1~--|
Gb|--------7---------------7----------4--4---5p4-5p4-----------5--X------4--------2~--|
Db|--------9----9----------7---0------5--5-----------5---------5--X------5--5-----2~--|
Ab|--10-10-10---10---5--5--5-------7--7--7-------------7---3-3-3--X--2-2-2--------0~--|
Eb|-----------------------------------------------------------------------------------|

[Drum Fill] 

[Chorus]
eb|--3-3-3-3-3--3-3-3-3-3-3--3-3-3-3-3-3--2-2h3p2-2p0--3-3-3-3-3--3-3-3-3-3-3--|
Bb|--1-1-1-1-1--1-1-1-1-1-1--3-3-3-3-3-3--3-3-3-3-3-3--1-1-1-1-1--1-1-1-1-1-1--|
Gb|--0-0-0-0-0--0-0-0-0-0-0--0-0-0-0-0-0--2-2-2-2-2-2--0-0-0-0-0--0-0-0-0-0-0--|
Db|--2-2-0h2-2--2-2-2-0h2-2--0-0-0-0-0-0---------------2-2-0h2-2--2-2-2-0h2-2--|
Ab|--3-3-3-3-3--3-3-3-3-3-3--2-2-0h2-2-2---------------3-3-3-3-3--3-3-3-3-3-3--|
Eb|--------------------------3-3-3-3-3-3---------------------------------------| 

[1st Tail]
eb|--3-3-3-3----------------|
Bb|--3-3-3-3----------------|
Gb|--0-0-0-0--7--5--4--<2b>-|
Db|--0-0-0-0----------------| 
Ab|--2-2-2-2----------------|
Eb|--3-3-3-3----------------|

[Chorus]
eb|--3-3-3-3-3--3-3-3-3-3-3--3-3-3-3-3-3--2-2-3-2-2-0--3-3-3-3-3--3-3-3-3-3-3--|
Bb|--1-1-1-1-1--1-1-1-1-1-1--3-3-3-3-3-3--3-3-3-3-3-3--1-1-1-1-1--1-1-1-1-1-1--|
Gb|--0-0-0-0-0--0-0-0-0-0-0--0-0-0-0-0-0--2-2-2-2-2-2--0-0-0-0-0--0-0-0-0-0-0--|
Db|--2-2-0h2-2--2-2-2-0h2-2--0-0-0-0-0-0---------------2-2-0h2-2--2-2-2-0h2-2--|
Ab|--3-3-3-3-3--3-3-3-3-3-3--2-2-0h2-2-2---------------3-3-3-3-3--3-3-3-3-3-3--|
Eb|--------------------------3-3-3-3-3-3---------------------------------------| 

[4th Tail]
Eb|------------------------------------------------|
Bb|----------------------------------------5-3-----|
Gb|------4-4-4-2------4-4-4-2------4--4-2----------|
Db|----4------------4------------4--------------2~-|
Ab|--2------------2------------2----------------2~-|
Eb|---------------------------------------------0~-|

[Outro]
eb|------------------------------------------------------------|
Bb|------------------------------------------------------------|
Gb|------------------------------------------------------------|
Db|--2------------------------------5--9-----9/7/9---9---7/9\--|
Ab|--2--3-2--5--5--5/7--5/7---------7----10--7/5/7---7---5/7\--|
Eb|--0-------3--0--3/5--3/5--5-5-7--8--------------------------| 

************************************

/\  - slide
pm - palm mute
b  - bend
p  - pull off
~  - let ring
h  - hammer on
< > - pinch harmonic
x  - fret hand muting

************************************
 
 
 
Puppy - The Great Beyond :: indexed at Ultimate Guitar.
The Great Beyond tabs @ 911Tabs
People who played Puppy - The Great Beyond also played these songs by Puppy:
Forever

Quick tip, so you can enjoy The Great Beyond even more:

If you don't really know how to deal with "Absus4" chord and his equally confusing brothers, just put the mouse cursor over them and you will be shown a helpful chord diagram.

Show us your talent, perform The Great Beyond!

Here you can post a video or audio performance. Tell me more ...
Where can we find your performance? Tell me more ...
Your comment:
Please, log in to post your performance.