Artists by letter: A B C D E F G H I J K L M N O P Q R S T U V W X Y Z 0-9
 
Ghost Riders In The Sky Tab
Ghost Riders In The Sky - The Shadows

/	Slide Up               This being my first tab
	Slide Down             I hope you like it and
B	Bend String            I also hope it works!
)))	Ring Out               ENJOY!

INTRO
e----------------------------------------------------------|
B--------------------15----13---12-------------------------|
G---14-----12---14------------------12-14------------------|
D----------------------------------------------------------|
A----------------------------------------------------------|
E----------------------------------------------------------|

e----------------------12-----15---------------------------|
B------------15----13--------------------------------------|
G---12---14------------------------14)))-------------------|
D----------------------------------------------------------|
A----------------------------------------------------------|
E----------------------------------------------------------|

e----------------------------------------------------------|
B--------------------15----13---12-------------------------|
G---14-----12---14------------------12-12---14-------------|
D----------------------------------------------------------|
A----------------------------------------------------------|
E----------------------------------------------------------|

e---------------------------12-15--------------------------|
B--------------15----13------------------------------------|
G-----12---14-----------------------14)))------------------|
D----------------------------------------------------------|
A----------------------------------------------------------|
E----------------------------------------------------------|

MAIN RIFF LOW
e----------------------------------------------------------|
B----------------------------------------------------------|
G----------------------------------------------------------|
D----------------------------------------------------------|
A-----0--0-0-0---2--3-3-3-3--0-----------------------------|
E---0--------------------------33-3-3--0--2b)))-----------|

e----------------------------------------------------------|
B----------------------------------------------------------|
G----------------------------------------------------------|
D----------------------------0--2--2-2-2---2)))------------|
A-----0--0-0-0---2--3--3-3-3-------------3-----------------|
E---0------------------------------------------------------|
	




e----------------------------------------------------------|
B----------------------------------------------------------|
G-------2-2--22--------------------------------------------|
D--0--2---------22-0-2-2-2-0-------------------------------|
A----------------------------0---------3-3-3--3-3-0-0------|
E------------------------------0-1-1-1----------------3-3/5|

PART 1
e----------------------------------------------------------|
B----------------------------------------------------------|
G---0-0-0-5---7-7-7-7---0-------------5---5-2b)))----------|
D---------------------------2-3---3-3----------------------|
A----------------------------------------------------------|
E----------------------------------------------------------|

MAIN RIFF HIGH
e----------------------------------------------------------|
B----------------------------------------------------------|
G-----2--2-2-2---4--5-5-5-5--2-----------------------------|
D---2--------------------------5-5-5-5-2-4b)))-------------|
A----------------------------------------------------------|
E----------------------------------------------------------|

e----------------------------------------------------------|
B---------------------------3--5--5-5-5--0-5---------------|
G-----2--2-2-2---4--5-5-5-5--------------------------------|
D---2------------------------------------------------------|
A----------------------------------------------------------|
E----------------------------------------------------------|

e-------5-0-5-0-5-0-5------------------------------------|
B---0-5------------------5-5---5-5-5-----------------------|
G----------------------------5-------5--2----------5-------|
D-----------------------------------------2-3-3-3----------|
A----------------------------------------------------------|
E----------------------------------------------------------|

e----------------------------------------------------------|
B----------------------------------------------------------|
G---5-5-2-2-0-1/2)))---------------------------------------|
D----------------------------------------------------------|
A----------------------------------------------------------|
E----------------------------------------------------------|

PERCUSSIONAL INTERLUDE 15 SECONDS

 
PART 2
e----------------------------------------------------------|
B----------------------------------------------------------|
G---0-0-0-5---7-7-7-7---0-------------5---5-2b)))----------|
D---------------------------2-3---3-3----------------------|
A----------------------------------------------------------|
E----------------------------------------------------------|


e---3-3-3-8---10-10-10-5---0-1--1-1-8---10-8---5-----------|
B----------------------------------------------------------|
G----------------------------------------------------------|
D----------------------------------------------------------|
A----------------------------------------------------------|
E----------------------------------------------------------|

e----------------------------------------------------------|
B----------------------------------------------------------|
G-------------5)))-----------------------------------------|
D---2-3---3-3----------------------------------------------|
A----------------------------------------------------------|
E----------------------------------------------------------|

OUTRO
e----------------------------------------------------------|
B--------------------15----13---12-------------------------|
G---14-----12---14------------------12-14------------------|
D----------------------------------------------------------|
A----------------------------------------------------------|
E----------------------------------------------------------|

e------------------------12-----15-------------------------|
B--------------15----13------------------------------------|
G-----12---14------------------------14))))))))))))))))))--|
D----------------------------------------------------------|
A----------------------------------------------------------|
E----------------------------------------------------------|

e--------------------------------------------12-15---------|
B--------------1513--12---------------15-13---------------|
G---14---12-14-----------12-14---12-14-------------14------|
D----------------------------------------------------------|
A----------------------------------------------------------|
E----------------------------------------------------------|

e--------------------------------------------12-15---------|
B--------------1513--12---------------15-13---------------|
G---14---12-14-----------12-14---12-14-------------14------|
D----------------------------------------------------------|
A----------------------------------------------------------|
E----------------------------------------------------------|

REPEATED UNTIL FADES OUT 

AMC
p.s. Clare ... hehehe

Tablature player for this song:
 
 
Shadows - Ghost Riders In The Sky Tab :: indexed at Ultimate Guitar.
Ghost Riders In The Sky tabs @ 911Tabs

About the artist behind Ghost Riders In The Sky Tab:

The Shadows are an English instrumental and vocal rock and roll group active from the 1950s to the 2000s.

Indexed at Wikipedia.

Show us your talent, perform Ghost Riders In The Sky Tab!

Here you can post a video or audio performance. Tell me more ...
Where can we find your performance? Tell me more ...
Your comment:
Please, log in to post your performance.