Artists by letter: A B C D E F G H I J K L M N O P Q R S T U V W X Y Z 0-9

I Want To Know Your Plans Tab (ver 3) - Say Anything


 
I Want To Know Your Plans Tab
-------------------------------------------------------------------------------
	           I WANT TO KNOW YOUR PLANS - Say Anything
-------------------------------------------------------------------------------
Tabbed by:azimuth457
Email:azimuth457@gmail.com

Tuning:Standard

i saw a pretty good tab for this, but it was wrong at parts, and the intro
wasnt perfect either.

Intro(x2):                                                      
e|--------------------------------|-------------|-----x-----------------------|
B|--------------------------------|-------------|-----0-----------------------|
G|--------------------------------|-------------|-----4-----------------------|
D|----5---------5----5---5----5---|--5----------|-----5-----------------------|
A|--------0-2-3---33---2---22-----|-------------|-----x-----------------------|
E|--3---3-----------------------5-|----5-5/75--|---5-5-----------------------|
Alternate between the two seperated endings.         

Max plays this again, except strumming all the chords your hands should make
if your fingers are on those strings alone.

Verse(firstpartx6):
e|-------------------|--------------------------------------------------------|
B|-------------------|--------------------------------------------------------|
G|-------------------|--555555--5~---5----------------------------------------|
D|----4-4----4444----|--555555--4~--4-----------------------------------------|
A|----5-5--3-5555----|--xxxxxx--5~-5------------------------------------------|
E|--3----------------|--555555------------------------------------------------|
              ^ ^middle and last ones are an upstrokes

Prechorus(x2):
e|-------------------------|--------------------|--0--x--0--------------------|
B|-------------------------|--------------------|--0--x--0--------------------|
G|--5-5-5--5-5-5-5-5-5-5~--|--4--------------4--|--7--7--7--------------------|
D|--5-5-5--5-5-5-5-5-5-5~--|--5-5-5-5-5-5-5--5--|--5--5--5--------------------|
A|--0-0-0--2-2-2/3-3-3-3~--|--x-0-2-3-3-2-x--x--|--7--5--7--------------------|
E|-------------------------|--3-----------5--3--|--x--x--x--------------------|
                           | alternate between these like before.

Chorus(x4):
e|--xxxx--xxxx--xxxx---------|------------------------------------------------|
B|--xxxx--xxxx--xxxx---------|------------------------------------------------|
G|--7777--7777--7777--5-4-4--|-----4--5---------------------------------------|
D|--5555--5555--5555--5-5-7--|--5--5--5---------------------------------------|
A|--3333--7777--5555--x-x-x--|--5--x--3---------------------------------------|
E|--xxxx--xxxx--xxxx--5-5-5--|--3--3------------------------------------------|
                             |this last part comes after the second chord,
                             |and only on the fourth time, eighth too, later.

After this, Max plays all of those again, and then continues with:

Bridge:          U                                U
e|-3333333-3333333-3333333-333-------333333-3333333-3333-0000--0--------------|
B|-3333333-3333333-3333333-333-------333333-3333333-3333-0000--0--------------|
G|-0000000-0000000-0000000-000-------000000-0000000-0000-4444--4--------------|
D|-xxxxxxx-222222x-xxxxxxx-000-------xxxxxx-222222x-xxxx-5555--5--------------|
A|-2222222-0000002-3333333-xxx-------222222-0000002-3333-4444--3--------------|
E|-0000000-xxxxxx0-xxxxxxx-333-2-3-2-000000-xxxxxx0-xxxx-xxxx--x--------------|

Max plays a solo, but he changes it every time he plays it it seems.
Heres what I play.
Solo:
e|----------------------------------------------------------------------------|
B|----------------------------------------------------------------------------|
G|--4h5p4---------------------------------------------------------------------|
D|--------5/75---------------------------------------------------------------|
A|--------------5/75---------------------------------------------------------|
E|--------------------5/75---------------------------------------------------|
Max goes from this straight into the intro again, and then plays:

Outro(x4):
e|-------------------------|--------------------------------------------------|
B|-------------------------|--------------------------------------------------|
G|-4-----------------------|--------------------------------------------------|
D|-5--5-5-555-5-555-5-555--|--555-555--555-5~---------------------------------|
A|-x--2-3-333-2-222-3-333--|--xxx-xxx--222-3~---------------------------------|
E|-3----------------5-555--|--333-555-----------------------------------------|
                           |ends the fourth time with this

Now he plays the chorus and the intro again.
he ends with this:
e|----------------------------------------------------------------------------|
B|----------------------------------------------------------------------------|
G|----------------------------------------------------------------------------|
D|---5-5-5-5-5-5--5-5-5--5-5-5--5~--------------------------------------------|
A|--3-2---3-2-----3-2-x--3-2-x--5~--------------------------------------------|
E|------5-----5-------5------5--3~--------------------------------------------|
I've also seen him end slowly with a full G chord (355433)


| /  slide up
|   slide down
| h  hammer-on
| p  pull-off
| ~  hold note
| +  harmonic
| x  Mute note
===============================================================================

 
 
Say Anything - I Want To Know Your Plans Tab :: indexed at Ultimate Guitar.
I Want To Know Your Plans tabs @ 911Tabs

About the artist behind I Want To Know Your Plans Tab:

Say Anything is an alternative rock band from Los Angeles, California, fronted by singer-songwriter Max Bemis.

Indexed at Wikipedia.

Show us your talent, perform I Want To Know Your Plans Tab!

Here you can post a video or audio performance. Tell me more ...
Where can we find your performance? Tell me more ...
Your comment:
Please, log in to post your performance.