Artists by letter: A B C D E F G H I J K L M N O P Q R S T U V W X Y Z 0-9

 
Pacific Life
E melodic minor (E; F#/Gb; G; A; B; C#/Db; D#/Eb; E;) 
Once you get the main sections you can piece the strumming and timing together by hearing the song. 

[Intro & Bridges]
(main guitar riff)
e|----7--------7--------7-----7--------7--------7-----7--------7--------7-----7--------7--------7------|
B|-------8--------8--------8-----8--------8--------8-----7--------7--------7-----7--------7--------7---|
G|----------9--------9--------------9--------9--------------8--------8--------------8--------8---------|
D|-----------------------------------------------------------------------------------------------------|
E|-----------------------------------------------------------------------------------------------------|
E|-----------------------------------------------------------------------------------------------------|

e|---------7--------7--------8--------7--------5--------2-----2-----2-----2--3-----3--2-----2--2h3p2--0---|
B|------5-----5--------5--------5--------5--------5--3-----3-----3-----3--------3--------3------------3/5-|
D|---5-----------5--------5--------5--------5-------------------------------------------------------------|
D|--------------------------------------------------------------------------------------------------------|
D|--------------------------------------------------------------------------------------------------------|
E|--------------------------------------------------------------------------------------------------------|

(Guitar 2)
e|-7-7--7-7-7-7--7-7--7--7-7-7-7--7--7-7--7-7-7-7--7----2-----2-----2-----2--3-----3--2-----2--2h3p2--0---|
B|-8-8--8-8-8-8--8-7--7--7-7-7-7--7--5-5--5-5-5-5--5-3-----3-----3-----3--------3--------3------------3/5-|
G|-9-9--9-9-9-9--9-8--8--8-8-8-8--8--5-5--5-5-5-5--5------------------------------------------------------|   
D|--------------------------------------------------------------------------------------------------------|
A|--------------------------------------------------------------------------------------------------------|
E|--------------------------------------------------------------------------------------------------------|

e|-------------------------------------------------------------------------------------------|
B|-------------------------------------------------------------------------------------------|
G|----9--9-9-9--9-9-9-x-x--7--7-7-7--7-7-7-x-x--6-6-6-x-x-5-5-5-x-x--------------------------|
D|----x--x-x-x--x-x-x-x-x--x--x-x-x--x-x-x-x-x--x-x-x-x-x-x-x-x-x-x--2-2-2-2-2-2-2-x-x-------|
A|----7--7-7-7--7-7-7-x-x--5--5-5-5--5-5-5-x-x--4-4-4-x-x-3-3-3-x-x--2-2-2-2-2-2-2-x-x-------|
E|-------------------------------------------------------------------0-0-0-0-0-0-0-x-x-------|

(Intro Only - Guitar 3 notes)
e|------------------------------------------------------------------|
B|------------------------------------------------------------------|
G|-----------------------------------7-------9----------------------|   
D|----9--7--6--5--2-----/14-----7h9-----7h9-----7h9--7\5--5\2--2----|
A|------------------------------------------------------------------|
E|------------------------------------------------------------------|

[Verse 1 & 2]
e|-------------------------------------------------------------------------------------------|
B|-------------------------------------------------------------------------------------------|
G|----9--9-9-9--9-9-9-x-x--7--7-7-7--7-7-7-x-x--6-6-6-x-x-5-5-5-x-x--------------------------|
D|----x--x-x-x--x-x-x-x-x--x--x-x-x--x-x-x-x-x--x-x-x-x-x-x-x-x-x-x--2-2-2-2-2-2-2-x-x-------|
A|----7--7-7-7--7-7-7-x-x--5--5-5-5--5-5-5-x-x--4-4-4-x-x-3-3-3-x-x--2-2-2-2-2-2-2-x-x-------|
E|-------------------------------------------------------------------0-0-0-0-0-0-0-x-x-------|

(Guitar 2- In verse 1 only)
e|------------------------------------------|
B|------------------------------------------|
G|----------7-------9-----------------------|   (x2)
D|-----7h9-----7h9-----7h9--7\5--5\2--2-----|
A|------------------------------------------|
E|------------------------------------------|

[Chorus] 
(Guitar 1)
e|----7--------7--------7-----7--------7--------7-----7--------7--------7-----7--------7--------7------|
B|-------8--------8--------8-----8--------8--------8-----7--------7--------7-----7--------7--------7---|
G|----------9--------9--------------9--------9--------------8--------8--------------8--------8---------|
D|-----------------------------------------------------------------------------------------------------|
E|-----------------------------------------------------------------------------------------------------|
E|-----------------------------------------------------------------------------------------------------|

e|--------7--------7--------8--------7--------5--------2-----2-----2-----2--3-----3--2-----2--2h3p2--0----|
B|-----5-----5--------5--------5--------5--------5--3-----3-----3-----3--------3--------3------------3/5--|
D|--5-----------5--------5--------5--------5--------------------------------------------------------------|
D|--------------------------------------------------------------------------------------------------------|
D|--------------------------------------------------------------------------------------------------------|
E|--------------------------------------------------------------------------------------------------------|

(Guitar 2)
e|--------------------------------------------------------------------------------------------------------|
B|--------------------------------------------------------------------------------------------------------|
G|----12--12--12--12-12--12--12--12-12-12--14--14--14--12--12--12--12--x-x--11--11--11--8--8--8--8--x-x---|  
D|----x---x---x---x--x---x---x---x--x--x---x---x---x---x---x---x---x---x-x--x---x---x---x--x--x--x--x-x---|
A|----10--10--10--10-10--10--10--10-10-10--12--12--12--10--10--10--10--x-x--9---9---9---6--6--6--6--x-x---|
E|--------------------------------------------------------------------------------------------------------|
 
e|--------------------------------------------------------------------------------------------------------|
B|--------------------------------------------------------------------------------------------------------|
G|--11--11--11--8--8--8--8--x-x--9--9--9--5--5--5--5--x-x--9--9--9--5--5--5--5--x-x--7--7--7-7-7--7--7--7-|   
D|--x---x---x---x--x--x--x--x-x--x--x--x--x--x--x--x--x-x--x--x--x--x--x--x--x--x-x--x--x--x-x-x--x--x--x-|
A|--9---9---9---6--6--6--6--x-x--7--7--7--3--3--3--3--x-x--7--7--7--3--3--3--3--x-x--5--5--5-5-5--5--5--5-|
E|--------------------------------------------------------------------------------------------------------|

e|--------------------------------------|
B|--------------------------------------|
G|---x-x--9--9--9--x-x--11-11-11--16----|   
D|---x-x--x--x--x--x-x--x--x--x---x-----|
A|---x-x--7--7--7--x-x--9--9--9---14----| 
E|--------------------------------------|

(Guitar 3)
e|--15---15/17---15---14---11---14---11---12--------12-------9/10---11---14---15----15/19----17---15-----|
B|--------------------------------------------13--------13-----------------------------------------------|
G|-------------------------------------------------------------------------------------------------------|   
D|-------------------------------------------------------------------------------------------------------|
A|-------------------------------------------------------------------------------------------------------|
E|-------------------------------------------------------------------------------------------------------|


************************************

| h  Hammer-on
| p  Pull-off
| /  Slide up
| x  Dead note
| \  Slide down

************************************
 
 
Set Loose - Pacific Life :: indexed at Ultimate Guitar.
Pacific Life tabs @ 911Tabs
People who played Set Loose - Pacific Life also played these songs by Set Loose:
The Ride, See You Next Year

Quick tip, so you can enjoy Pacific Life even more:

You might want to transpose the song if it is too high or too low for you to sing. Just click the desired option while playing a song and all the chords will automatically be transponded into a new key.

Show us your talent, perform Pacific Life!

Here you can post a video or audio performance. Tell me more ...
Where can we find your performance? Tell me more ...
Your comment:
Please, log in to post your performance.