Artists by letter: A B C D E F G H I J K L M N O P Q R S T U V W X Y Z 0-9
 
Stop And Stare Tab
Stop and stare" send Questions to Jonse94@hotmail.com
i cant make the hole song yet, maybe there be updates later have fun ;D

E-------------------------------------------------|
B-------------------------------------------------|
G-------------------------------------------------|
D8--------6---------------------------------------|
A8--------6---------------------------------------|
E6--------4---------------------------------------|

Play until chorus there goes like..
 C
E-------------------------------------------------|
B1---------1-----------6--------------------------|
G0---------2-----------7---------4----------------|
D2---------2-----------7---------5----------------|
A3---------3-----------5---------5----------------|
EX---------x---------------------3----------------|


See you later guys, more updates later ;D

Love Jownas

Tablature player for this song:
 
 
Onerepublic - Stop And Stare Tab :: indexed at Ultimate Guitar.
Stop And Stare tabs @ 911Tabs

Quick tip, so you can enjoy Stop And Stare Tab even more:

If you don't really know how to deal with "Absus4" chord and his equally confusing brothers, just put the mouse cursor over them and you will be shown a helpful chord diagram.

Show us your talent, perform Stop And Stare Tab!

Here you can post a video or audio performance. Tell me more ...
Where can we find your performance? Tell me more ...
Your comment:
Please, log in to post your performance.