Artists by letter: A B C D E F G H I J K L M N O P Q R S T U V W X Y Z 0-9
 
Handog Tab
Handog
Join the Club


Tuning: Standard
Tabbed by: Voltaire Carpeso
email: cursedkiddo12@hotmail.com
friendster: cursedkiddo12@hotmail.com
		cursedkiddo10@hotmail.com
		    cursedkiddo25@hotmail.com

--> this tabbed is dedicated to all fans of Join the Club ( but im not totally fan of Join the Club )
i tabbed this because of my friends and for you of course .. ^_^ 

--> nung una, nahirapan ako dito .. kainiz .. hehe .. pero ito nagawa ko din.. just try niyo na lang po

**************************************************************


Parang kailan lang
Ang mga pangarap ko'y kahirap abutin
Dahil sa inyo
Napunta ako sa aking nais marating

Nais ko kayong pasalamatan
kahit man lang sa isang awitin

Parang kailan lang
Halos ako ay magpalimos sa lansangan
Dahil sa inyo
Ang aking tiyan at ang bulsa'y nagkalaman

Kaya't itong awitin aking inaawit
Nais kong kayo ang handugan

Tatanda at lilipas din ako
Ngunit mayroong awitin
IIwanan sa inyo
Alaala
Dahil minsan tayo'y nagkasama

Parang kailan lang
Ang mga awitin ko ay ayaw pakinggan
Dahil sa inyo
Narinig ang isip ko at Naintindihan

Dahil dito'y ibig ko kayong
Ituring na matalik kong kaibigan


Intro:

Guitar I

[0:01-0:20]

e|-----------------------------------------------|
B|-----------2/4--2------------------------------|
G|--3-3/41----------4-3-4-4/6---4/6-4-3---3-4-4-|
D|-----------------------------4---------6-------|
A|-----------------------------------------------|
E|-----------------------------------------------|


e|-----------------------------------------------|
B|--2/4--2---------------------------------------|
G|---------4-3-4-4/6---4/6-4-3-444444444444444/0-|
D|-------------------4---------------------------|
A|-----------------------------------------------|
E|-----------------------------------------------|

Guitar II

[0:01-0:20]

e|-----------------------------------------|
B|-----------------------------------------|
G|-----------------------------------------|
D|--22222222--55555555--44444444--66666666-|
A|--22222222--55555555--44444444--66666666-|
E|--00000000--33333333--22222222--44444444-|

e|-------------------------------------------------|
B|-------------------------------------------------|
G|-------------------------------------------------|
D|--22222222--55555555--44444444--6666666666666666-|
A|--22222222--55555555--44444444--6666666666666666-|
E|--00000000--33333333--22222222--4444444444444444-|



Verse I:

Guitar II

[0:20-0:36]

e|---------------|
B|---------------|
G|---------------|
D|--66666666666--|
A|--44444444444--|
E|---------------|
    ...........

Guitar I

[0:29-0:36]

e|------------------------------------|
B|---4-------4-------4-------4--------|
G|-----6-5-6---6-5-6---6-5-6---6-5-6--|
D|------------------------------------|
A|------------------------------------|
E|------------------------------------|



Refrain:

Guitar I and II

[0:37-0:42]

e|----------------|
B|----------------|
G|--8-----8-----6-|
D|--8--6--8--6--6-|
A|--6--6--6--6--4-|
E|-----4-----4----|



Verse II:

Guitar II

[0:42-1:02]

e|---------------|
B|---------------|
G|---------------|
D|--66666666666--|
A|--44444444444--|
E|---------------|
    ...........

Guitar I

[0:46-1:03]

e|------------------------------------|
B|---4-------4-------4-------4--------|
G|-----6-5-6---6-5-6---6-5-6---6-5-6--|
D|------------------------------------|
A|------------------------------------|
E|------------------------------------|




Pre-Chorus:

Guitar I and II

[1:03-1:10]

e|----------------------------------|
B|----------------------------------|
G|--8-----8-----6-------------------|
D|--8--6--8--6--6-66666666-66666666-|
A|--6--6--6--6--4-44444444-22222222-|
E|-----4-----4----------------------|
                  ....



Chorus:

Guitar II

[1:11-1:26]

e|--2--2--1--1--|
B|--2--2--1--2--|
G|--3--2--1--3--| [2x]
D|--4--4--3--3--|
A|--4--4--3--1--|
E|--2--2--1-----|

Guitar I and II

[1:28-1:43]

e|-----------------------------------------------|
B|-----------------------------------------------|
G|--33333333------------55555555--66666666666666-|
D|--44444444--44444444--66666666--66666666666666-|
A|--44444444--44444444--66666666--44444444444444-|
E|--22222222--22222222--44444444-----------------|




Verse III:

Guitar I

[1:44-2:00]

e|------------------------------------|
B|---4-------4-------4-------4--------|
G|-----6-5-6---6-5-6---6-5-6---6-5-6--|
D|------------------------------------|
A|------------------------------------|
E|------------------------------------|

Guitar II

[1:44-2:00]

e|---------------|
B|---------------|
G|---------------|
D|--66666666666--|
A|--44444444444--|
E|---------------|
    ...........



Pre-Chorus:

Guitar I and II

[2:01-2:08]


e|----------------------------------|
B|----------------------------------|
G|--8-----8-----6-------------------|
D|--8--6--8--6--6-66666666-66666666-|
A|--6--6--6--6--4-44444444-22222222-|
E|-----4-----4----------------------|
                  ....




Chorus:

Guitar II

[2:09-2:25]

e|--2--2--1--1--|
B|--2--2--1--2--|
G|--3--2--1--3--| [2x]
D|--4--4--3--3--|
A|--4--4--3--1--|
E|--2--2--1-----|

Guitar I and II

[2:26-2:36]

e|-----------------------------------------------|
B|-----------------------------------------------|
G|--33333333------------55555555--66666666666666-|
D|--44444444--44444444--66666666--66666666666666-|
A|--44444444--44444444--66666666--44444444444444-|
E|--22222222--22222222--44444444-----------------|




Adlib:

Rhythm Guitar

[2:35-2:45]

e|-----------------------------------------|
B|--------------------------------22222222-|
G|--33333333------------11111111--33333333-|
D|--44444444--44444444--33333333--33333333-|
A|--44444444--44444444--33333333--11111111-|
E|--22222222--22222222--11111111-----------|

Lead

[2:35-2:45]

e|------------------------------------------------------------|
B|--------------97--7--6---------------6-6--9-7-6------------|
G|-------------------------8-8--6--8-8--------------8--8-6-8--|
D|--10-10/118------------------------------------------------|
A|------------------------------------------------------------|
E|------------------------------------------------------------|

Rhythm

[2:46-2:53]

e|-----------------------------------------|
B|--------------------------------22222222-|
G|--33333333------------11111111--33333333-|
D|--44444444--44444444--33333333--33333333-|
A|--44444444--44444444--33333333--11111111-|
E|--22222222--22222222--11111111-----------|

Lead

[2:46-2:53]

e|-------------------------------------------------------|
B|-----------------------------9-7---------6-------------|
G|--5-5h6-5--5h6--3--3h5------------5h6-5-----5-5/6-6----|
D|-----------------------6--6----------------------------|
A|-------------------------------------------------------|
E|-------------------------------------------------------|

Rhythm

[2:54-3:04]

e|-----------------------------------------------|
B|-----------------------------------------------|
G|--33333333------------55555555--66666666666666-|
D|--44444444--44444444--66666666--66666666666666-|
A|--44444444--44444444--66666666--44444444444444-|
E|--22222222--22222222--44444444-----------------|

Lead

[2:54-3:03]

e|-----9-8------------------------------------------------------11--8--|
B|---------11-----------------9--------97-----------------7/9---------|
G|--10--------10--------108----10--8-------6h8--5h6-5--8--------------|
D|----------------11h13------------------------------------------------|
A|---------------------------------------------------------------------|
E|---------------------------------------------------------------------|



Outro:

Both Guitar

[3:04-3:21]

e|-----------------------------------------|
B|--------------------------------22222222-|
G|--33333333------------11111111--33333333-|
D|--44444444--44444444--33333333--33333333-|
A|--44444444--44444444--33333333--11111111-|
E|--22222222--22222222--11111111-----------|

[3:22-3:32]

e|-----------------------------------------------|
B|-----------------------------------------------|
G|--33333333------------55555555--66666666666666-|
D|--44444444--44444444--66666666--66666666666666-|
A|--44444444--44444444--66666666--44444444444444-|
E|--22222222--22222222--44444444-----------------|

[3:33-3:49]

e|-----------------------------------------|
B|--------------------------------22222222-|
G|--33333333------------11111111--33333333-|
D|--44444444--44444444--33333333--33333333-|
A|--44444444--44444444--33333333--11111111-|
E|--22222222--22222222--11111111-----------|

[3:50-4:00]

e|-----------------------------------------------|
B|-----------------------------------------------|
G|--33333333------------55555555--66666666666666-|
D|--44444444--44444444--66666666--66666666666666-|
A|--44444444--44444444--66666666--44444444444444-|
E|--22222222--22222222--44444444-----------------|



Fade:

Both Guitar

[4:00-4:12]

e|----------|
B|---x---x--|
G|---5---5--|
D|---3---3--|
A|---4---4--|
E|---x---x--|



Tablature player for this song:
 
 
Join The Club - Handog Tab :: indexed at Ultimate Guitar.
Handog tabs @ 911Tabs

Quick tip, so you can enjoy Handog Tab even more:

If you don't really know how to deal with "Absus4" chord and his equally confusing brothers, just put the mouse cursor over them and you will be shown a helpful chord diagram.

Show us your talent, perform Handog Tab!

Here you can post a video or audio performance. Tell me more ...
Where can we find your performance? Tell me more ...
Your comment:
Please, log in to post your performance.