Artists by letter: A B C D E F G H I J K L M N O P Q R S T U V W X Y Z 0-9

 
The Moon Is A Magnet
Jon Foreman - The Moon Is a Magnet

I'm pretty sure this tab is almost %100 percent correct. I spent a VERY long time on it,
it should be good.

Notes with () around them are notes that are played softly, and they may be hard to hear
the CD.

Intro:
e]-------------------------|
B]-------------------------|
G]--------7--------6-------|
D]------4-----0--5---------|   4x
A]----5-----0----------(0)-|
E]--------------5----------|

Verse:   (second time through, the last open A note is changed to an open D)
e]-----------------------------------------------------------------------|
B]-----------------------------------------------------------------------|
G]--------7---------6---------9-----------8---------4--------------7-----|
D]------4-----0---5--------5--------0--------0----0-------0-----0--------| 2x
A]----5-----0----------0-7---------0----6---------------0-------------(0)|
E]--------------5---------------------7---------3-------------6----------|

chorus:
e]--------------------------------------------------|
B]--------3-----------3-----------3-----------3-----|
G]------------0---------------2-------------2-------|
D]-----(0)--0------2--------0--(0)-----0---------0--|
A]---------------0----------------------------------|
E]----3----------------------------------2----------|

e]--------------------------------------------------|
B]--------3-----------3------------3-----------4----|
G]------------0---------------2----------0----------|
D]-----(0)--0------2--------0---(0)----------4----4-|
A]---------------0-------------------------2--------|
E]----3---------------------------------------------|

e]-------------------------------------------------------|
B]--------5-----------5----------7-----------7-----------|
G]------------5----------------------7-------------------|
D]------5---5------7------------7--7-------9---9---------|
A]----3----------4------------5---------6----------------|
E]-------------------------------------------------------|

e]-------------------------------------------------------|
B]------8-------------12-----------14---------------14---|
G]-------------------------------------------------------|
D]----9-----9------12-----------(14)-------14---(14)-----|
A]--7-----7-----10-------10--12--------(12)---12---------|
E]-------------------------------------------------------|

(After the last note go straight to the intro)
e]------------------------------------|
B]----------12----------------14------|
G]------------------------------------|
D]-0-----12-------12------14----------|
A]----10-------10------12----------(0)|
E]------------------------------------|

play the intro, then the verse, then the chorus.

Bridge: (x= mute the string with your finger and hit it) It would sound best if you strum
this part, not pick it.
e]------------------------------------------------------------------|
B]-------3-----------5--------3-----------5--------3-----------5----|
G]-------4-----------6--------4-----------6--------4-----------6----|
D]------------------------------------------------------------------|
A]------------------------------------------------------------------|
E]---3------x--3--5-----x-3------x--3--5-----x-3------x--3--5-----x-|

e]-------3-----------5|
B]-------3-----------5|
G]-------4-----------6|
D]-------5-----------7|
A]--------------------|
E]---3------x--3--5---|

Ending:
e]--------------------------------------------------------------------------|
B]--------------------------------------------------------------------------|
G]-------7---------6---------9-----------8---------4--------------7-------7-|
D]-----4-----0---5--------5--------0--------0----0-------0-----0----------4-|
A]---5-----0----------0-7---------0----6---------------0------------------5-|
E]-------------5---------------------7---------3-------------6--------------|
 
 
Jon Foreman - The Moon Is A Magnet :: indexed at Ultimate Guitar.
The Moon Is A Magnet tabs @ 911Tabs

About the artist behind The Moon Is A Magnet:

Jonathan Mark Foreman (born October 22, 1976) is the lead singer, guitarist, and co-founder of the alternative rock band Switchfoot. He started Switchfoot in 1996 with drummer Chad Butler and his brother Tim on bass. He writes or co-writes the music for all of Switchfoot's songs.

Foreman was born in San Bernardino County, California, but his family then moved to Massachusetts and Virginia Beach during his childhood. After moving to Encinitas in North County San Diego in his junior high years, he went to Torrey Pines High School in Carmel Valley, California, and he became fast friends with Todd Cooper who encouraged him to learn guitar. [1] Cooper was later a guitar tech for Switchfoot, eventually leaving in 2005 to pursue his own musical career. Foreman attended UC San Diego and later dropped out to follow his singing career.

Indexed at Wikipedia.

Show us your talent, perform The Moon Is A Magnet!

Here you can post a video or audio performance. Tell me more ...
Where can we find your performance? Tell me more ...
Your comment:
Please, log in to post your performance.